  0
SECTION
  2
HEADER
  9
$ACADVER
  1
AC1018
  9
$ACADMAINTVER
 70
     0
  9
$DWGCODEPAGE
  3
ANSI_1252
  9
$EXTMIN
 10
-74.0955658933551
 20
4.5897616681168
 30
0.0
  9
$EXTMAX
 10
-74.0600478696104
 20
4.61136501464028
 30
0.0
  9
$LIMMIN
 10
0.0
 20
0.0
  9
$LIMMAX
 10
12.0
 20
9.0
  9
$ORTHOMODE
 70
     0
  9
$REGENMODE
 70
     1
  9
$FILLMODE
 70
     1
  9
$QTEXTMODE
 70
     0
  9
$MIRRTEXT
 70
     1
  9
$LTSCALE
 40
1.0
  9
$ATTMODE
 70
     1
  9
$TEXTSIZE
 40
0.2
  9
$TRACEWID
 40
0.05
  9
$TEXTSTYLE
  7
Standard
  9
$CLAYER
  8
0
  9
$CELTYPE
  6
ByLayer
  9
$CECOLOR
 62
   256
  9
$CELTSCALE
 40
1.0
  9
$DISPSILH
 70
     0
  9
$LUNITS
 70
     2
  9
$LUPREC
 70
     4
  9
$SKETCHINC
 40
0.1
  9
$FILLETRAD
 40
0.5
  9
$AUNITS
 70
     0
  9
$AUPREC
 70
     0
  9
$MENU
  1
.
  9
$ELEVATION
 40
0.0
  9
$PELEVATION
 40
0.0
  9
$THICKNESS
 40
0.0
  9
$LIMCHECK
 70
     0
  9
$CHAMFERA
 40
0.5
  9
$CHAMFERB
 40
0.5
  9
$CHAMFERC
 40
1.0
  9
$CHAMFERD
 40
0.0
  9
$SKPOLY
 70
     0
  9
$TDCREATE
 40
2455343.56230316
  9
$TDUCREATE
 40
2455343.728969826
  9
$TDUPDATE
 40
2455343.562303171
  9
$TDUUPDATE
 40
2455343.728969838
  9
$TDINDWG
 40
0.0000000116
  9
$TDUSRTIMER
 40
0.0000000116
  9
$USRTIMER
 70
     1
  9
$ANGBASE
 50
0.0
  9
$ANGDIR
 70
     0
  9
$PDMODE
 70
     0
  9
$PDSIZE
 40
0.0
  9
$PLINEWID
 40
0.0
  9
$SPLFRAME
 70
     0
  9
$SPLINETYPE
 70
     6
  9
$SPLINESEGS
 70
     8
  9
$HANDSEED
  5
00020020
  9
$SURFTAB1
 70
     6
  9
$SURFTAB2
 70
     6
  9
$SURFTYPE
 70
     6
  9
$SURFU
 70
     6
  9
$SURFV
 70
     6
  9
$UCSBASE
  2

  9
$UCSNAME
  2

  9
$UCSORG
 10
0.0
 20
0.0
 30
0.0
  9
$UCSXDIR
 10
1.0
 20
0.0
 30
0.0
  9
$UCSYDIR
 10
0.0
 20
1.0
 30
0.0
  9
$UCSORTHOREF
  2

  9
$UCSORTHOVIEW
 70
     0
  9
$UCSORGTOP
 10
0.0
 20
0.0
 30
0.0
  9
$UCSORGBOTTOM
 10
0.0
 20
0.0
 30
0.0
  9
$UCSORGLEFT
 10
0.0
 20
0.0
 30
0.0
  9
$UCSORGRIGHT
 10
0.0
 20
0.0
 30
0.0
  9
$UCSORGFRONT
 10
0.0
 20
0.0
 30
0.0
  9
$UCSORGBACK
 10
0.0
 20
0.0
 30
0.0
  9
$PUCSBASE
  2

  9
$PUCSNAME
  2

  9
$PUCSORG
 10
0.0
 20
0.0
 30
0.0
  9
$PUCSXDIR
 10
1.0
 20
0.0
 30
0.0
  9
$PUCSYDIR
 10
0.0
 20
1.0
 30
0.0
  9
$PUCSORTHOREF
  2

  9
$PUCSORTHOVIEW
 70
     0
  9
$PUCSORGTOP
 10
0.0
 20
0.0
 30
0.0
  9
$PUCSORGBOTTOM
 10
0.0
 20
0.0
 30
0.0
  9
$PUCSORGLEFT
 10
0.0
 20
0.0
 30
0.0
  9
$PUCSORGRIGHT
 10
0.0
 20
0.0
 30
0.0
  9
$PUCSORGFRONT
 10
0.0
 20
0.0
 30
0.0
  9
$PUCSORGBACK
 10
0.0
 20
0.0
 30
0.0
  9
$WORLDVIEW
 70
     1
  9
$SHADEDGE
 70
     3
  9
$SHADEDIF
 70
    70
  9
$TILEMODE
 70
     1
  9
$MAXACTVP
 70
    64
  9
$PINSBASE
 10
0.0
 20
0.0
 30
0.0
  9
$PLIMCHECK
 70
     0
  9
$PEXTMIN
 10
1.000000000000000E+20
 20
1.000000000000000E+20
 30
1.000000000000000E+20
  9
$PEXTMAX
 10
-1.000000000000000E+20
 20
-1.000000000000000E+20
 30
-1.000000000000000E+20
  9
$PLIMMIN
 10
0.0
 20
0.0
  9
$PLIMMAX
 10
12.0
 20
9.0
  9
$UNITMODE
 70
     0
  9
$VISRETAIN
 70
     1
  9
$PLINEGEN
 70
     0
  9
$PSLTSCALE
 70
     1
  9
$TREEDEPTH
 70
  3020
  9
$CMLSTYLE
  2
Standard
  9
$CMLJUST
 70
     0
  9
$CMLSCALE
 40
1.0
  9
$PROXYGRAPHICS
 70
     1
  9
$MEASUREMENT
 70
     0
  9
$CELWEIGHT
370
    -1
  9
$ENDCAPS
280
     0
  9
$JOINSTYLE
280
     0
  9
$LWDISPLAY
290
     0
  9
$INSUNITS
 70
     1
  9
$HYPERLINKBASE
  1

  9
$STYLESHEET
  1

  9
$XEDIT
290
     1
  9
$CEPSNTYPE
380
     0
  9
$PSTYLEMODE
290
     1
  9
$FINGERPRINTGUID
  2
{E7F7769E-AACA-40AB-9EF3-61BBAFBCBA26}
  9
$VERSIONGUID
  2
{FAEB1C32-E019-11D5-929B-00C0DF256EC4}
  9
$EXTNAMES
290
     1
  9
$PSVPSCALE
 40
0.0
  9
$OLESTARTUP
290
     0
  9
$SORTENTS
280
   127
  9
$INDEXCTL
280
     0
  9
$HIDETEXT
280
     1
  9
$XCLIPFRAME
290
     0
  9
$HALOGAP
280
     0
  9
$OBSCOLOR
 70
   257
  9
$OBSLTYPE
280
     0
  9
$INTERSECTIONDISPLAY
280
     0
  9
$INTERSECTIONCOLOR
 70
   257
  9
$DIMASSOC
280
     2
  9
$PROJECTNAME
  1

  0
ENDSEC
  0
SECTION
  2
CLASSES
  0
CLASS
  1
ACDBDICTIONARYWDFLT
  2
AcDbDictionaryWithDefault
  3
ObjectDBX Classes
 90
        0
 91
        4
280
     0
281
     0
  0
CLASS
  1
VISUALSTYLE
  2
AcDbVisualStyle
  3
ObjectDBX Classes
 90
     4095
 91
        4
280
     0
281
     0
  0
ENDSEC
  0
SECTION
  2
TABLES
  0
TABLE
  2
VPORT
  5
8
330
0
100
AcDbSymbolTable
 70
     1
  0
VPORT
  5
29
330
8
100
AcDbSymbolTableRecord
100
AcDbViewportTableRecord
  2
*Active
 70
     0
 10
0.0
 20
0.0
 11
1.0
 21
1.0
 12
80.25
 22
106.4409457059851
 13
0.0
 23
0.0
 14
0.5
 24
0.5
 15
0.5
 25
0.5
 16
0.0
 26
0.0
 36
1.0
 17
0.0
 27
0.0
 37
0.0
 40
113.3818914119703
 41
0.8863849310366128
 42
50.0
 43
0.0
 44
0.0
 50
0.0
 51
0.0
 71
     0
 72
  1000
 73
     1
 74
     3
 75
     0
 76
     0
 77
     0
 78
     0
281
     0
 65
     1
110
0.0
120
0.0
130
0.0
111
1.0
121
0.0
131
0.0
112
0.0
122
1.0
132
0.0
 79
     0
146
0.0
  0
ENDTAB
  0
TABLE
  2
LTYPE
  5
5
330
0
100
AcDbSymbolTable
 70
     1
  0
LTYPE
  5
14
330
5
100
AcDbSymbolTableRecord
100
AcDbLinetypeTableRecord
  2
ByBlock
 70
     0
  3

 72
    65
 73
     0
 40
0.0
  0
LTYPE
  5
15
330
5
100
AcDbSymbolTableRecord
100
AcDbLinetypeTableRecord
  2
ByLayer
 70
     0
  3

 72
    65
 73
     0
 40
0.0
  0
LTYPE
  5
16
330
5
100
AcDbSymbolTableRecord
100
AcDbLinetypeTableRecord
  2
Continuous
 70
     0
  3
Solid line
 72
    65
 73
     0
 40
0.0
  0
ENDTAB
  0
TABLE
  2
LAYER
  5
2
330
0
100
AcDbSymbolTable
 70
     1
  0
LAYER
  5
10
330
2
100
AcDbSymbolTableRecord
100
AcDbLayerTableRecord
  2
0
 70
     0
 62
     7
  6
Continuous
370
    -3
390
F
  0
ENDTAB
  0
TABLE
  2
STYLE
  5
3
330
0
100
AcDbSymbolTable
 70
     1
  0
STYLE
  5
11
330
3
100
AcDbSymbolTableRecord
100
AcDbTextStyleTableRecord
  2
Standard
 70
     0
 40
0.0
 41
1.0
 50
0.0
 71
     0
 42
0.2
  3
txt
  4

  0
ENDTAB
  0
TABLE
  2
VIEW
  5
6
330
0
100
AcDbSymbolTable
 70
     0
  0
ENDTAB
  0
TABLE
  2
UCS
  5
7
330
0
100
AcDbSymbolTable
 70
     0
  0
ENDTAB
  0
TABLE
  2
APPID
  5
9
330
0
100
AcDbSymbolTable
 70
     1
  0
APPID
  5
12
330
9
100
AcDbSymbolTableRecord
100
AcDbRegAppTableRecord
  2
ACAD
 70
     0
  0
ENDTAB
  0
TABLE
  2
DIMSTYLE
  5
A
330
0
100
AcDbSymbolTable
 70
     1
100
AcDbDimStyleTable
  0
DIMSTYLE
105
27
330
A
100
AcDbSymbolTableRecord
100
AcDbDimStyleTableRecord
  2
Standard
 70
     0
340
11
  0
ENDTAB
  0
TABLE
  2
BLOCK_RECORD
  5
1
330
0
100
AcDbSymbolTable
 70
     1
  0
BLOCK_RECORD
  5
1F
330
1
100
AcDbSymbolTableRecord
100
AcDbBlockTableRecord
  2
*Model_Space
340
22
  0
BLOCK_RECORD
  5
1B
330
1
100
AcDbSymbolTableRecord
100
AcDbBlockTableRecord
  2
*Paper_Space
340
1E
  0
BLOCK_RECORD
  5
23
330
1
100
AcDbSymbolTableRecord
100
AcDbBlockTableRecord
  2
*Paper_Space0
340
26
  0
ENDTAB
  0
ENDSEC
  0
SECTION
  2
BLOCKS
  0
BLOCK
  5
20
330
1F
100
AcDbEntity
  8
0
100
AcDbBlockBegin
  2
*Model_Space
 70
     0
 10
0.0
 20
0.0
 30
0.0
  3
*Model_Space
  1

  0
ENDBLK
  5
21
330
1F
100
AcDbEntity
  8
0
100
AcDbBlockEnd
  0
BLOCK
  5
1C
330
1B
100
AcDbEntity
 67
     1
  8
0
100
AcDbBlockBegin
  2
*Paper_Space
 70
     0
 10
0.0
 20
0.0
 30
0.0
  3
*Paper_Space
  1

  0
ENDBLK
  5
1D
330
1B
100
AcDbEntity
 67
     1
  8
0
100
AcDbBlockEnd
  0
BLOCK
  5
24
330
23
100
AcDbEntity
  8
0
100
AcDbBlockBegin
  2
*Paper_Space0
 70
     0
 10
0.0
 20
0.0
 30
0.0
  3
*Paper_Space0
  1

  0
ENDBLK
  5
25
330
23
100
AcDbEntity
  8
0
100
AcDbBlockEnd
  0
ENDSEC
  0
SECTION
  2
ENTITIES
  0
LWPOLYLINE
  5
20000
  8
0
100
AcDbEntity
100
AcDbPolyline
 70
0
 90
28
 10
-74.0795566600441
 20
4.59074746027427
 10
-74.079492270222
 20
4.59086907969283
 10
-74.0794160796073
 20
4.59101895996778
 10
-74.0792039496042
 20
4.59141916982546
 10
-74.0791855301344
 20
4.59145067975629
 10
-74.0791532501069
 20
4.59150591975611
 10
-74.0786793596336
 20
4.59237623960586
 10
-74.0786585102769
 20
4.5924204895505
 10
-74.0783881998351
 20
4.59289185970583
 10
-74.0781217903582
 20
4.59333668023009
 10
-74.0779697301421
 20
4.59359292978198
 10
-74.0779535699845
 20
4.59362296013008
 10
-74.0774930003255
 20
4.59442362025045
 10
-74.0774430802481
 20
4.59452259964958
 10
-74.0774004997308
 20
4.59460702979178
 10
-74.0771307296851
 20
4.59510881012596
 10
-74.0770074295895
 20
4.59533732005292
 10
-74.0769100603608
 20
4.59552373015794
 10
-74.0768692595522
 20
4.59560107980481
 10
-74.0764209804103
 20
4.59642686019434
 10
-74.0763616103884
 20
4.59650651033788
 10
-74.0763375698037
 20
4.59655290044244
 10
-74.075893009882
 20
4.59729651004967
 10
-74.0758827398385
 20
4.59735671022917
 10
-74.0758866497363
 20
4.59740875006001
 10
-74.0759018500247
 20
4.59747676017511
 10
-74.0759024800139
 20
4.59749194025395
 10
-74.075900349021
 20
4.59750634175867
  0
LWPOLYLINE
  5
20001
  8
0
100
AcDbEntity
100
AcDbPolyline
 70
0
 90
19
 10
-74.0696024851285
 20
4.59356869106767
 10
-74.0699869159014
 20
4.59376413009839
 10
-74.0702498763763
 20
4.59390736010215
 10
-74.0704595445094
 20
4.59404419430501
 10
-74.0708025905921
 20
4.59426639531487
 10
-74.0711793241487
 20
4.59450778604466
 10
-74.0714625321872
 20
4.59468575379774
 10
-74.0717110944319
 20
4.59484605192483
 10
-74.0720345049524
 20
4.59505966909805
 10
-74.0723155139237
 20
4.59524313952809
 10
-74.0726046843436
 20
4.59542889497526
 10
-74.0730793150214
 20
4.59573449694618
 10
-74.0737506543753
 20
4.59616746075305
 10
-74.0741262847464
 20
4.59639861803226
 10
-74.0744557902589
 20
4.59660901216155
 10
-74.0747398598913
 20
4.59679054117837
 10
-74.0751629017927
 20
4.59704908692963
 10
-74.0757700414728
 20
4.59742409385899
 10
-74.075900349021
 20
4.59750634175867
  0
LWPOLYLINE
  5
20002
  8
0
100
AcDbEntity
100
AcDbPolyline
 70
0
 90
17
 10
-74.0689741165222
 20
4.59564478854184
 10
-74.0692773709983
 20
4.59578627776724
 10
-74.0695078780239
 20
4.59591028566601
 10
-74.0698646413469
 20
4.5961355159345
 10
-74.0702265388685
 20
4.59635958138674
 10
-74.0705796269059
 20
4.59657949116829
 10
-74.0707816000167
 20
4.59670814462495
 10
-74.0709607928448
 20
4.59682035277552
 10
-74.0712442544764
 20
4.59700202502767
 10
-74.071553027024
 20
4.59719203424444
 10
-74.0722051524667
 20
4.59761156931079
 10
-74.0727308377506
 20
4.59793163008575
 10
-74.0729463154427
 20
4.59806628023007
 10
-74.0730687614022
 20
4.59820789377495
 10
-74.0736332961953
 20
4.59855329016732
 10
-74.0740727609271
 20
4.59883003383455
 10
-74.074772203328
 20
4.59925644592773
  0
LWPOLYLINE
  5
20003
  8
0
100
AcDbEntity
100
AcDbPolyline
 70
0
 90
14
 10
-74.075900349021
 20
4.59750634175867
 10
-74.0758966504318
 20
4.59753134010247
 10
-74.07588396024
 20
4.59757835956035
 10
-74.075684299863
 20
4.59791776986452
 10
-74.0755417897244
 20
4.5981611403226
 10
-74.0755098403613
 20
4.59820986993043
 10
-74.0754781796208
 20
4.5982458900423
 10
-74.07542504979
 20
4.59828561962246
 10
-74.0754115796443
 20
4.59829416963407
 10
-74.0753622802745
 20
4.59830553999974
 10
-74.0753261601806
 20
4.59837080964075
 10
-74.0748481701144
 20
4.59912938999694
 10
-74.0748184698801
 20
4.59917982012566
 10
-74.074772203328
 20
4.59925644592773
  0
LWPOLYLINE
  5
20004
  8
0
100
AcDbEntity
100
AcDbPolyline
 70
0
 90
7
 10
-74.075900349021
 20
4.59750634175867
 10
-74.0764365153425
 20
4.59784476006972
 10
-74.0775886458968
 20
4.59860256633113
 10
-74.0781191930125
 20
4.59895579224228
 10
-74.0789177699617
 20
4.59948480081261
 10
-74.0798380500978
 20
4.60008497336403
 10
-74.0807102612523
 20
4.60065536782492
  0
LWPOLYLINE
  5
20005
  8
0
100
AcDbEntity
100
AcDbPolyline
 70
0
 90
9
 10
-74.0684088079327
 20
4.59788715100292
 10
-74.0685173812473
 20
4.59782779245311
 10
-74.0689647953389
 20
4.59793668674384
 10
-74.0697674895383
 20
4.59831938189803
 10
-74.0703927661276
 20
4.59871604399816
 10
-74.0711853154432
 20
4.59923115867507
 10
-74.0719886028699
 20
4.59975607512434
 10
-74.0737133359611
 20
4.60085269408925
 10
-74.0737471035345
 20
4.60087412836657
  0
LWPOLYLINE
  5
20006
  8
0
100
AcDbEntity
100
AcDbPolyline
 70
0
 90
4
 10
-74.074772203328
 20
4.59925644592773
 10
-74.0747050401808
 20
4.59936768001551
 10
-74.0742929895771
 20
4.60000671032425
 10
-74.0737471035345
 20
4.60087412836657
  0
LWPOLYLINE
  5
20007
  8
0
100
AcDbEntity
100
AcDbPolyline
 70
0
 90
16
 10
-74.074772203328
 20
4.59925644592773
 10
-74.074913994541
 20
4.59934288768058
 10
-74.0755506292235
 20
4.59972911668038
 10
-74.0757316070765
 20
4.5998701471404
 10
-74.0759863075436
 20
4.60000443689071
 10
-74.0762006913658
 20
4.6001267994787
 10
-74.076469864236
 20
4.60028611270048
 10
-74.0765769477493
 20
4.60037877168336
 10
-74.0768907297952
 20
4.60058064162823
 10
-74.0772385506799
 20
4.60079637952302
 10
-74.0775607597072
 20
4.60102465615461
 10
-74.0777661819527
 20
4.60116269097866
 10
-74.0780462496406
 20
4.60133852975575
 10
-74.0783370755872
 20
4.60156807577692
 10
-74.0784501477381
 20
4.6016573832126
 10
-74.0787780413734
 20
4.60186208846955
  0
LWPOLYLINE
  5
20008
  8
0
100
AcDbEntity
100
AcDbPolyline
 70
0
 90
20
 10
-74.0737471035345
 20
4.60087412836657
 10
-74.0737435599623
 20
4.60087975960571
 10
-74.0733980997926
 20
4.60141891974533
 10
-74.0733737297815
 20
4.6014502200851
 10
-74.0733462898116
 20
4.60148048960632
 10
-74.0732645501724
 20
4.60157869975653
 10
-74.0730901102502
 20
4.60187225995355
 10
-74.0727087902524
 20
4.60253349974001
 10
-74.0723007898042
 20
4.60350268023998
 10
-74.0720410496229
 20
4.60411162982254
 10
-74.07192344978
 20
4.6043899198193
 10
-74.0717181803551
 20
4.60494655984392
 10
-74.0716205399326
 20
4.60527095959556
 10
-74.0715784699776
 20
4.60533608014775
 10
-74.0715412500511
 20
4.60539367041199
 10
-74.0714783201107
 20
4.60560486958647
 10
-74.0713020900502
 20
4.60615759029436
 10
-74.0710349601101
 20
4.60700620980523
 10
-74.0707488700759
 20
4.60797576012826
 10
-74.0707300190832
 20
4.60804232489689
  0
LWPOLYLINE
  5
20009
  8
0
100
AcDbEntity
100
AcDbPolyline
 70
0
 90
5
 10
-74.0737471035345
 20
4.60087412836657
 10
-74.0742874147115
 20
4.60121709105475
 10
-74.0747589083533
 20
4.60150805034939
 10
-74.0754287510576
 20
4.60190913288728
 10
-74.0759888058776
 20
4.60224174063376
  0
LWPOLYLINE
  5
2000A
  8
0
100
AcDbEntity
100
AcDbPolyline
 70
0
 90
28
 10
-74.0639717414047
 20
4.60338518940524
 10
-74.0641650522522
 20
4.60374473118766
 10
-74.0642787465745
 20
4.60414539789153
 10
-74.064430341298
 20
4.60467962374767
 10
-74.0645706804516
 20
4.60507001286976
 10
-74.0646917312799
 20
4.60531505203624
 10
-74.0648516528531
 20
4.60554331294115
 10
-74.06508105262
 20
4.60587074222871
 10
-74.0653061583128
 20
4.60616601026857
 10
-74.0654549402737
 20
4.60644316796121
 10
-74.0656037029239
 20
4.60664518037334
 10
-74.0658703759563
 20
4.60691626872968
 10
-74.0662631863926
 20
4.6073904315537
 10
-74.0665396219202
 20
4.60767417875791
 10
-74.0666505475137
 20
4.60784582848169
 10
-74.0668633895054
 20
4.60805141753078
 10
-74.0669920350319
 20
4.60814914788942
 10
-74.0672440666391
 20
4.60822634525996
 10
-74.0674592309783
 20
4.60830453006942
 10
-74.0677336389391
 20
4.60845462869401
 10
-74.0680579331831
 20
4.60867976588642
 10
-74.0682390317467
 20
4.60881923893213
 10
-74.0684640449148
 20
4.6090417417293
 10
-74.0689297153794
 20
4.60933320772917
 10
-74.0696118573114
 20
4.6097042606638
 10
-74.0700650310388
 20
4.60995498903477
 10
-74.0701287540859
 20
4.60998407321104
 10
-74.070196437263
 20
4.61002172362459
  0
LWPOLYLINE
  5
2000B
  8
0
100
AcDbEntity
100
AcDbPolyline
 70
0
 90
16
 10
-74.0648715728934
 20
4.60388843838956
 10
-74.0649622478073
 20
4.60411241744623
 10
-74.0650916315678
 20
4.60432444439845
 10
-74.0651927183473
 20
4.60447097068243
 10
-74.0654578303274
 20
4.60461339729164
 10
-74.0659627982524
 20
4.60494887661473
 10
-74.0665372003969
 20
4.60532233647909
 10
-74.0669100648584
 20
4.60567468059321
 10
-74.0673834109213
 20
4.60598595396068
 10
-74.0678820835637
 20
4.60630734862288
 10
-74.068454557471
 20
4.60667924291547
 10
-74.0690879943004
 20
4.60709066132614
 10
-74.0695134989203
 20
4.60734568710297
 10
-74.0701028654453
 20
4.60773411333051
 10
-74.0705492203792
 20
4.60799442251078
 10
-74.0706225479773
 20
4.60803328477821
  0
LWPOLYLINE
  5
2000C
  8
0
100
AcDbEntity
100
AcDbPolyline
 70
0
 90
15
 10
-74.0678245400346
 20
4.60621096414826
 10
-74.067880976483
 20
4.60610197226846
 10
-74.0679701351626
 20
4.60587045556815
 10
-74.0681108736153
 20
4.60549780380936
 10
-74.0682062540803
 20
4.60525983627776
 10
-74.068355647725
 20
4.60486125112553
 10
-74.068504129652
 20
4.60446170041731
 10
-74.0686670173663
 20
4.60407340631473
 10
-74.0688276984108
 20
4.60368812659549
 10
-74.0690753422206
 20
4.60305993364229
 10
-74.0692413761926
 20
4.60262752612068
 10
-74.0693700146203
 20
4.60235064159634
 10
-74.0696578061669
 20
4.60173873468218
 10
-74.0697333722086
 20
4.60153736926507
 10
-74.0700454883512
 20
4.60090966015405
  0
LWPOLYLINE
  5
2000D
  8
0
100
AcDbEntity
100
AcDbPolyline
 70
0
 90
2
 10
-74.0707145695968
 20
4.60803329460832
 10
-74.0707300190832
 20
4.60804232489689
  0
LWPOLYLINE
  5
2000E
  8
0
100
AcDbEntity
100
AcDbPolyline
 70
0
 90
8
 10
-74.0707300190832
 20
4.60804232489689
 10
-74.0707276904201
 20
4.60805054967733
 10
-74.0706513396812
 20
4.60832472000228
 10
-74.0705273501275
 20
4.60877754976606
 10
-74.0704639497588
 20
4.60901013981129
 10
-74.0704405197134
 20
4.60909344972743
 10
-74.070214979719
 20
4.60994344005247
 10
-74.070196437263
 20
4.61002172362459
  0
LWPOLYLINE
  5
2000F
  8
0
100
AcDbEntity
100
AcDbPolyline
 70
0
 90
3
 10
-74.0707300190832
 20
4.60804232489689
 10
-74.0727346777264
 20
4.60921405175088
 10
-74.0738175878295
 20
4.60987131068876
  0
LWPOLYLINE
  5
20010
  8
0
100
AcDbEntity
100
AcDbPolyline
 70
0
 90
2
 10
-74.070196437263
 20
4.61002172362459
 10
-74.0701947203689
 20
4.610028970396
  0
LWPOLYLINE
  5
20011
  8
0
100
AcDbEntity
100
AcDbPolyline
 70
0
 90
5
 10
-74.070196437263
 20
4.61002172362459
 10
-74.0707783685745
 20
4.61034544115187
 10
-74.071229026583
 20
4.61054073477549
 10
-74.0718314822954
 20
4.61092189685052
 10
-74.0725772334934
 20
4.61136501464028
  0
LWPOLYLINE
  5
20012
  8
0
100
AcDbEntity
100
AcDbPolyline
 70
0
 90
28
 10
-74.0694176324798
 20
4.59444548263185
 10
-74.0695515365137
 20
4.59451235318418
 10
-74.0700130819662
 20
4.59483970025231
 10
-74.0708763352262
 20
4.59545393091171
 10
-74.0709681890081
 20
4.59551823494106
 10
-74.0714346511058
 20
4.59581594746247
 10
-74.071663422859
 20
4.59594629659337
 10
-74.0718055378352
 20
4.59602798241101
 10
-74.0718841247649
 20
4.59605327862791
 10
-74.0721237275996
 20
4.59621635893374
 10
-74.0725848973886
 20
4.59652233677202
 10
-74.07329552796
 20
4.59699925147057
 10
-74.0735596347803
 20
4.59715594742038
 10
-74.073887042487
 20
4.59734793448235
 10
-74.0742588429068
 20
4.59758165490296
 10
-74.0746339456173
 20
4.59781053572238
 10
-74.0753252909448
 20
4.59823411980755
 10
-74.0754584695183
 20
4.59836210156753
 10
-74.0758080734017
 20
4.5985874737143
 10
-74.076147143041
 20
4.59878618448107
 10
-74.0765300444355
 20
4.59901712247262
 10
-74.0771993702778
 20
4.59947707930877
 10
-74.0783328147428
 20
4.6002329770369
 10
-74.0787700264521
 20
4.60052135686702
 10
-74.0790064024198
 20
4.60070819126103
 10
-74.0792738095088
 20
4.60090684312644
 10
-74.0795185303544
 20
4.60108252431433
 10
-74.0796671156302
 20
4.60117981767838
  0
LWPOLYLINE
  5
20013
  8
0
100
AcDbEntity
100
AcDbPolyline
 70
0
 90
24
 10
-74.0689534451507
 20
4.59539473773812
 10
-74.0693896416559
 20
4.59561140654979
 10
-74.0698170485158
 20
4.59587473509225
 10
-74.0704455878215
 20
4.59626972608813
 10
-74.0711612531859
 20
4.59672155342211
 10
-74.0718714054028
 20
4.59716520234564
 10
-74.0721647234516
 20
4.59736409459355
 10
-74.0729447509549
 20
4.59783562302395
 10
-74.0730536925336
 20
4.59795887235572
 10
-74.073838705554
 20
4.59844864112021
 10
-74.0746609709156
 20
4.59894873769873
 10
-74.0755509639993
 20
4.59947794725655
 10
-74.0757102182145
 20
4.59961775612707
 10
-74.0759540475119
 20
4.59974968730712
 10
-74.0762750594963
 20
4.59993966588439
 10
-74.076461000517
 20
4.60005048667605
 10
-74.0765466590338
 20
4.60012804850852
 10
-74.0768177039896
 20
4.60030521296885
 10
-74.0774065888638
 20
4.60067318310739
 10
-74.0776482845962
 20
4.60085354709324
 10
-74.0780333160713
 20
4.60109591673614
 10
-74.078413115067
 20
4.60139261843012
 10
-74.0787531795578
 20
4.60160962308997
 10
-74.0788566785706
 20
4.60167954074726
  0
LWPOLYLINE
  5
20014
  8
0
100
AcDbEntity
100
AcDbPolyline
 70
0
 90
32
 10
-74.0687017606336
 20
4.59635876006866
 10
-74.068952546729
 20
4.59648805123275
 10
-74.0690991336929
 20
4.59655712617742
 10
-74.0691803304815
 20
4.59657234304084
 10
-74.0692611973359
 20
4.59658136057746
 10
-74.069362103946
 20
4.59664235191752
 10
-74.0695512270925
 20
4.59679863442953
 10
-74.0697246908526
 20
4.5969406337134
 10
-74.0698645250748
 20
4.59705423268267
 10
-74.0699441764513
 20
4.59712523107847
 10
-74.0705160162001
 20
4.59748126113913
 10
-74.0709862201182
 20
4.59780003274979
 10
-74.0713037777115
 20
4.59801741277336
 10
-74.071553736302
 20
4.59817918544697
 10
-74.071679600902
 20
4.59825824270372
 10
-74.0718121079463
 20
4.59833198722407
 10
-74.0722942175024
 20
4.59865128081072
 10
-74.072536523741
 20
4.5988062112597
 10
-74.0725976540393
 20
4.59886305340396
 10
-74.072890149851
 20
4.59906842658662
 10
-74.0734778732408
 20
4.59946226903117
 10
-74.0738842023987
 20
4.59971782808041
 10
-74.0742244564946
 20
4.59995349963817
 10
-74.0749006587307
 20
4.60037702474636
 10
-74.0751435405931
 20
4.60053462193014
 10
-74.075243548262
 20
4.60062344494524
 10
-74.0756521632979
 20
4.6008784662807
 10
-74.0757410520159
 20
4.60095821970264
 10
-74.0760397965941
 20
4.60113940074682
 10
-74.0772169550894
 20
4.60187359261981
 10
-74.0775443978673
 20
4.60206141082168
 10
-74.0777082721973
 20
4.60216746624371
  0
LWPOLYLINE
  5
20015
  8
0
100
AcDbEntity
100
AcDbPolyline
 70
0
 90
81
 10
-74.0600573246937
 20
4.60217653984081
 10
-74.0600478696104
 20
4.60203368859961
 10
-74.0600908027965
 20
4.60180944767602
 10
-74.060150414888
 20
4.60172803536476
 10
-74.0602721302014
 20
4.60165953173744
 10
-74.0606756319773
 20
4.6015063657912
 10
-74.0610122707178
 20
4.60138980330341
 10
-74.0612534449617
 20
4.60136949341665
 10
-74.0617547499318
 20
4.60147974920562
 10
-74.0619944543435
 20
4.60151774538854
 10
-74.0620473357908
 20
4.60151467915069
 10
-74.0622844985278
 20
4.60138024763222
 10
-74.062526259826
 20
4.60119320766718
 10
-74.0627400448174
 20
4.60108082867454
 10
-74.0628610358174
 20
4.60100965786272
 10
-74.0630783230771
 20
4.60123046381572
 10
-74.0633328248704
 20
4.60109613792988
 10
-74.0634831097971
 20
4.60112943074825
 10
-74.0635910092442
 20
4.60107810538018
 10
-74.0636887347626
 20
4.60093970775982
 10
-74.0638780192584
 20
4.60078163005486
 10
-74.0639785703317
 20
4.60072381613229
 10
-74.0641737652503
 20
4.60076819913804
 10
-74.0642383471507
 20
4.60083202539194
 10
-74.0643292202994
 20
4.60100351587496
 10
-74.0643879568984
 20
4.60098698039912
 10
-74.0646625059936
 20
4.60052638057139
 10
-74.0648888245605
 20
4.60024155877391
 10
-74.0651463069409
 20
4.6000482363501
 10
-74.0653487322849
 20
4.59997775328256
 10
-74.0654459515024
 20
4.59983530294789
 10
-74.0657948068541
 20
4.59941428779869
 10
-74.0658553542475
 20
4.59931531498578
 10
-74.0659469852369
 20
4.59918217371175
 10
-74.0659189302435
 20
4.59875989175521
 10
-74.0658908761795
 20
4.59833760979325
 10
-74.0661206903846
 20
4.59823937927102
 10
-74.0666075136837
 20
4.59813394779851
 10
-74.0668087344124
 20
4.59803484062477
 10
-74.0669541361652
 20
4.59796430097734
 10
-74.067116583936
 20
4.59784098072414
 10
-74.0672045257132
 20
4.59775548691226
 10
-74.0672924863313
 20
4.59764605290932
 10
-74.0673971632306
 20
4.59747570725474
 10
-74.0677153244489
 20
4.59664880649526
 10
-74.067892321067
 20
4.59619775737033
 10
-74.0678983988475
 20
4.59604297848433
 10
-74.0678731065717
 20
4.5959653608286
 10
-74.06777201426
 20
4.59587479385895
 10
-74.0676613370318
 20
4.59576861190391
 10
-74.0675964386398
 20
4.59567602859188
 10
-74.0675369113209
 20
4.5955725957709
 10
-74.0675289160086
 20
4.59549470160515
 10
-74.0675738913157
 20
4.59543415467056
 10
-74.0676639049091
 20
4.59524804517609
 10
-74.0677340935121
 20
4.59513063178673
 10
-74.0677819291667
 20
4.5947807094022
 10
-74.0679493524989
 20
4.59436744514306
 10
-74.0681168423163
 20
4.59395399734219
 10
-74.0682061973878
 20
4.59370723904428
 10
-74.0682531876561
 20
4.59360563672731
 10
-74.0684346854627
 20
4.59358521564867
 10
-74.0686444011822
 20
4.59361152092504
 10
-74.0688278936631
 20
4.59371357782202
 10
-74.0689913465432
 20
4.59375533818914
 10
-74.0691255064524
 20
4.59373680103422
 10
-74.0692658385691
 20
4.59368734313971
 10
-74.0694876299508
 20
4.59355454812456
 10
-74.0695981369684
 20
4.59348334244361
 10
-74.0696957410247
 20
4.59344911590806
 10
-74.0699476213299
 20
4.59357349206566
 10
-74.0702850861487
 20
4.59376402015506
 10
-74.0714843085461
 20
4.59450817620953
 10
-74.0724201870237
 20
4.59512951409218
 10
-74.0732688024132
 20
4.59563787166057
 10
-74.075003360067
 20
4.59675496295888
 10
-74.0760440846857
 20
4.59738464378836
 10
-74.0781683889049
 20
4.59876384519712
 10
-74.0791334335069
 20
4.59938509942494
 10
-74.0804318879248
 20
4.60023240684305
 10
-74.0808919609281
 20
4.60053228302675
  0
LWPOLYLINE
  5
20016
  8
0
100
AcDbEntity
100
AcDbPolyline
 70
0
 90
38
 10
-74.063770846249
 20
4.60593403446069
 10
-74.0638489024242
 20
4.60585832067952
 10
-74.0639949319504
 20
4.60581290339345
 10
-74.0642920205789
 20
4.60577507685783
 10
-74.0643988279215
 20
4.60576324567713
 10
-74.0645170576214
 20
4.60577807595483
 10
-74.0645956237599
 20
4.60577158743631
 10
-74.0646856123992
 20
4.6057512056309
 10
-74.064829846764
 20
4.60567954362522
 10
-74.0649101422314
 20
4.60561233794631
 10
-74.0649686948505
 20
4.60549021036451
 10
-74.0653959971784
 20
4.60445578678859
 10
-74.0654195317109
 20
4.60445578947477
 10
-74.0655212301259
 20
4.60449199156177
 10
-74.0678343736128
 20
4.60610498629653
 10
-74.0686665243937
 20
4.60664974773683
 10
-74.0690107869411
 20
4.60688553068111
 10
-74.0691181276462
 20
4.60695729060083
 10
-74.0691761969145
 20
4.60696750341129
 10
-74.0692200549419
 20
4.60693962769716
 10
-74.069278070236
 20
4.60681568366285
 10
-74.0695193700986
 20
4.60611242603199
 10
-74.0698321591942
 20
4.60529537791267
 10
-74.0699505076213
 20
4.60534607146637
 10
-74.0703873462681
 20
4.60562360536144
 10
-74.0711251983566
 20
4.60603647314545
 10
-74.0713149057022
 20
4.6061640449413
 10
-74.0718520579278
 20
4.60648723616433
 10
-74.0723070370834
 20
4.60569188035396
 10
-74.0731044971833
 20
4.60622223674134
 10
-74.0746474362689
 20
4.60370063763532
 10
-74.0762729024797
 20
4.60484550136633
 10
-74.0769197351612
 20
4.60394204008653
 10
-74.0773924790087
 20
4.60333195144517
 10
-74.0775499931707
 20
4.60315328949065
 10
-74.0782178640369
 20
4.6025666188002
 10
-74.0786286461225
 20
4.60221229298058
 10
-74.0789247495207
 20
4.60186222717881
  0
LWPOLYLINE
  5
20017
  8
0
100
AcDbEntity
100
AcDbPolyline
 70
0
 90
52
 10
-74.0713796150882
 20
4.58984435373812
 10
-74.0719197073408
 20
4.58986327497952
 10
-74.0724459321519
 20
4.5897616681168
 10
-74.0731392349606
 20
4.59003565902451
 10
-74.0737356918922
 20
4.59023402493633
 10
-74.0744264622134
 20
4.59009877665685
 10
-74.0747031904387
 20
4.58999944520743
 10
-74.0751872472745
 20
4.58984428482867
 10
-74.0759492093896
 20
4.58997252982829
 10
-74.076472206674
 20
4.59015117738157
 10
-74.0768964389413
 20
4.59035393227913
 10
-74.077489111869
 20
4.59067488016354
 10
-74.0777772858031
 20
4.59083891695559
 10
-74.07792328841
 20
4.59092112080242
 10
-74.0780451554942
 20
4.59099080441163
 10
-74.0781496517089
 20
4.59104420711171
 10
-74.0781760221867
 20
4.59105707916687
 10
-74.0781971339973
 20
4.59105672322748
 10
-74.0782144542083
 20
4.59103764703894
 10
-74.0784144018385
 20
4.59075164668747
 10
-74.0784274843341
 20
4.59073483538526
 10
-74.0784382349687
 20
4.59072352348736
 10
-74.0784479167253
 20
4.59071745710475
 10
-74.0784602417566
 20
4.59070875053868
 10
-74.0784939035177
 20
4.59068360136435
 10
-74.0785402099666
 20
4.59066065360722
 10
-74.0785908110124
 20
4.59064340927231
 10
-74.0786804891086
 20
4.59063452566575
 10
-74.0788659236548
 20
4.5906784960194
 10
-74.0790301936252
 20
4.59070951976741
 10
-74.0792011162752
 20
4.59072067982085
 10
-74.0794044057399
 20
4.59073059995221
 10
-74.0795556555847
 20
4.59073821368264
 10
-74.0796095901609
 20
4.59075435153169
 10
-74.0796267291325
 20
4.59076564798704
 10
-74.080545430129
 20
4.5913694063402
 10
-74.0813176882641
 20
4.59202724065152
 10
-74.0813788644172
 20
4.59205679996595
 10
-74.0814246671343
 20
4.59206549110527
 10
-74.0814607310202
 20
4.59206402367421
 10
-74.0815003584031
 20
4.5920545918694
 10
-74.0816775774444
 20
4.59198451127414
 10
-74.0818346578817
 20
4.59197060744683
 10
-74.0819513638874
 20
4.59199913944221
 10
-74.082337828151
 20
4.59215996344286
 10
-74.0826508089517
 20
4.59232481407276
 10
-74.0830098944349
 20
4.59241702821666
 10
-74.0837735035712
 20
4.59287855116699
 10
-74.0850590905162
 20
4.59363417054583
 10
-74.085788878412
 20
4.59405763307517
 10
-74.0863944052998
 20
4.59439891810014
 10
-74.0866525131115
 20
4.59455144242737
  0
LWPOLYLINE
  5
20018
  8
0
100
AcDbEntity
100
AcDbPolyline
 70
0
 90
43
 10
-74.0703446353448
 20
4.59162786564369
 10
-74.0705711442924
 20
4.59169204670423
 10
-74.0710436807034
 20
4.59179320542705
 10
-74.0717893928919
 20
4.59212272646962
 10
-74.0721645079215
 20
4.59241497630282
 10
-74.0724011082273
 20
4.59270721063939
 10
-74.0727047251518
 20
4.59293675845615
 10
-74.0732241371899
 20
4.59313644111363
 10
-74.0736079220951
 20
4.59332164272438
 10
-74.073770927296
 20
4.59357825890453
 10
-74.0740367936891
 20
4.59380139601699
 10
-74.0743835911991
 20
4.59394051283672
 10
-74.0746452650717
 20
4.59400567425043
 10
-74.0748963490298
 20
4.59400569954641
 10
-74.0751711789834
 20
4.59404994922823
 10
-74.0755091368882
 20
4.59419009150528
 10
-74.0758155914406
 20
4.59432647820354
 10
-74.0761932841114
 20
4.59442324539252
 10
-74.0763619322807
 20
4.59442326202837
 10
-74.0765559721182
 20
4.59438691886157
 10
-74.0767971615853
 20
4.59433967230539
 10
-74.0772742928247
 20
4.59437850370472
 10
-74.0775032948501
 20
4.59444412552694
 10
-74.0781858368663
 20
4.59482789698262
 10
-74.0784793107595
 20
4.59489331044266
 10
-74.0787867549157
 20
4.59501476995987
 10
-74.0792199677022
 20
4.59522497922334
 10
-74.079602750739
 20
4.59545033186759
 10
-74.0800080160668
 20
4.59563718540626
 10
-74.0802169010479
 20
4.59566722685244
 10
-74.0804830673986
 20
4.59561790320017
 10
-74.0806226412166
 20
4.59558173014456
 10
-74.0811658342836
 20
4.59548220027377
 10
-74.0814665098747
 20
4.59550915555677
 10
-74.0820116166527
 20
4.59554413918362
 10
-74.082276009377
 20
4.59556213270027
 10
-74.0825962860942
 20
4.59565161363575
 10
-74.0829597953256
 20
4.59576516684178
 10
-74.0832071983042
 20
4.5958460335891
 10
-74.0834192712224
 20
4.59600247269859
 10
-74.0837755837788
 20
4.59634503044537
 10
-74.0842317243233
 20
4.59668839223522
 10
-74.0845830777824
 20
4.59693522092541
  0
LWPOLYLINE
  5
20019
  8
0
100
AcDbEntity
100
AcDbPolyline
 70
0
 90
13
 10
-74.0845830777824
 20
4.59693522092541
 10
-74.0851866660442
 20
4.59723500830421
 10
-74.0862144720168
 20
4.59794669493168
 10
-74.0871512819857
 20
4.59862644772502
 10
-74.0878348021515
 20
4.59911388855602
 10
-74.0880089856993
 20
4.59920830232382
 10
-74.0888045787785
 20
4.59968036261135
 10
-74.0899634986758
 20
4.60057920181883
 10
-74.0906649318719
 20
4.60111733304214
 10
-74.0916401848472
 20
4.60179384956698
 10
-74.0935641284275
 20
4.60319934819416
 10
-74.0946443316418
 20
4.60385075221446
 10
-74.0955658933551
 20
4.60457030553069
  0
LWPOLYLINE
  5
2001A
  8
0
100
AcDbEntity
100
AcDbPolyline
 70
0
 90
31
 10
-74.0697743184837
 20
4.60075194429887
 10
-74.0691013103717
 20
4.60041455290529
 10
-74.0690910600332
 20
4.6004034350267
 10
-74.069082223313
 20
4.60039044251201
 10
-74.0690757959191
 20
4.60037297209701
 10
-74.0690754983587
 20
4.60035893554711
 10
-74.0690847963804
 20
4.60033792788458
 10
-74.0690955424151
 20
4.60032186317178
 10
-74.0694464631762
 20
4.59969287853344
 10
-74.0694675532183
 20
4.59959577772758
 10
-74.069477417449
 20
4.59952819957894
 10
-74.0694706367955
 20
4.59946167995943
 10
-74.0694238213771
 20
4.59933438171191
 10
-74.069362735079
 20
4.59923903921793
 10
-74.0693542967679
 20
4.59922390981441
 10
-74.0693504514999
 20
4.59921179196273
 10
-74.0693473646801
 20
4.59919183695659
 10
-74.0693401585154
 20
4.5991283898115
 10
-74.0693431825583
 20
4.59906210989638
 10
-74.069356601849
 20
4.59896614271573
 10
-74.069454405312
 20
4.59863452610987
 10
-74.0695986069002
 20
4.59814558942881
 10
-74.0697135996883
 20
4.59745425991351
 10
-74.0697271570631
 20
4.59734671766915
 10
-74.0697230387204
 20
4.59731054842037
 10
-74.069716516139
 20
4.59728196304359
 10
-74.0697105967147
 20
4.59726553765279
 10
-74.0697019094807
 20
4.59725327916775
 10
-74.0693467988808
 20
4.59716850186742
 10
-74.0689260498878
 20
4.59698478997313
 10
-74.0683486064941
 20
4.59665225889962
  0
LWPOLYLINE
  5
2001B
  8
0
100
AcDbEntity
100
AcDbPolyline
 70
0
 90
56
 10
-74.0697743184837
 20
4.60075194429887
 10
-74.0700097437312
 20
4.60076847486729
 10
-74.0703595381835
 20
4.60079730047218
 10
-74.0705530472292
 20
4.60078174703428
 10
-74.0707456666973
 20
4.60068523940469
 10
-74.0708568847315
 20
4.60062950291154
 10
-74.0709975379312
 20
4.60059672440458
 10
-74.0713753268148
 20
4.60064267508155
 10
-74.0716276738659
 20
4.60069807128088
 10
-74.0719116700256
 20
4.60078039392589
 10
-74.0721470352033
 20
4.60083820893566
 10
-74.072422826442
 20
4.60088761322128
 10
-74.0729087286039
 20
4.60113783334941
 10
-74.0743892996993
 20
4.60207500857444
 10
-74.0747648277598
 20
4.60222716490567
 10
-74.0750066919206
 20
4.60227997627735
 10
-74.0753604458042
 20
4.60228001177547
 10
-74.0759760651253
 20
4.60224337280529
 10
-74.0767626936407
 20
4.60214259774998
 10
-74.0773595366264
 20
4.60214265606489
 10
-74.0779988129765
 20
4.60218813598247
 10
-74.0783626763406
 20
4.60216643370086
 10
-74.078674422881
 20
4.60204510023561
 10
-74.0789247495207
 20
4.60186222717881
 10
-74.0791154301943
 20
4.6016061285095
 10
-74.0792230560774
 20
4.60146431001003
 10
-74.0793610783338
 20
4.60135788758457
 10
-74.079557495651
 20
4.60120357489463
 10
-74.0797329377019
 20
4.60116555322094
 10
-74.0798913368332
 20
4.60112666934738
 10
-74.0802366901768
 20
4.60105512513341
 10
-74.0804143511654
 20
4.60098522935027
 10
-74.0805886956121
 20
4.60087205394214
 10
-74.0806836481534
 20
4.6007981423065
 10
-74.0808164912785
 20
4.60061172233258
 10
-74.0809134847545
 20
4.60047234957419
 10
-74.0810333637121
 20
4.60018831180391
 10
-74.0811136043132
 20
4.5999885355949
 10
-74.0811367341779
 20
4.59991018703118
 10
-74.0811951649664
 20
4.59987358155875
 10
-74.0814194826041
 20
4.59991335148054
 10
-74.0816527260947
 20
4.5999395999717
 10
-74.0817784048518
 20
4.59990811241368
 10
-74.0819009487709
 20
4.59979577534117
 10
-74.0821380732126
 20
4.59953967733048
 10
-74.082422202376
 20
4.59925218299344
 10
-74.0825835265047
 20
4.59906596139422
 10
-74.0827443602232
 20
4.59883219831536
 10
-74.0831895812245
 20
4.59805205042396
 10
-74.0833895094159
 20
4.59771098376292
 10
-74.0834910151443
 20
4.59755153793442
 10
-74.0836256845879
 20
4.59741801666921
 10
-74.0839668384577
 20
4.59719565625687
 10
-74.0843619791969
 20
4.59699316106278
 10
-74.0845445393108
 20
4.59693383452775
 10
-74.0845830777824
 20
4.59693522092541
  0
LWPOLYLINE
  5
2001C
  8
0
100
AcDbEntity
100
AcDbPolyline
 70
0
 90
14
 10
-74.064845955117
 20
4.6034508917532
 10
-74.0654593824309
 20
4.60332545502686
 10
-74.0662731221407
 20
4.60308290040832
 10
-74.0668197867384
 20
4.60293235320618
 10
-74.0670920321392
 20
4.60275920246778
 10
-74.0673632996682
 20
4.60248311706196
 10
-74.0676262386595
 20
4.60205223843741
 10
-74.0677893709738
 20
4.60171610689941
 10
-74.0679771698966
 20
4.60153623372594
 10
-74.0684570905219
 20
4.60116394916106
 10
-74.0688126417315
 20
4.60094119545437
 10
-74.0691005828136
 20
4.6008199033678
 10
-74.0695512616715
 20
4.60073628097443
 10
-74.0697743184837
 20
4.60075194429887
  0
LWPOLYLINE
  5
2001D
  8
0
100
AcDbEntity
100
AcDbPolyline
 70
0
 90
15
 10
-74.0702594320713
 20
4.59213091955725
 10
-74.0708399504313
 20
4.59258748025736
 10
-74.0710857600391
 20
4.59283100399206
 10
-74.0712168115004
 20
4.59301333172868
 10
-74.0712972101126
 20
4.5931200902801
 10
-74.0720317935729
 20
4.59367961522666
 10
-74.0723422764846
 20
4.5939307059245
 10
-74.0729271795884
 20
4.59430521033163
 10
-74.0732610049421
 20
4.59453454499219
 10
-74.0745986397396
 20
4.59537223989269
 10
-74.0763751057469
 20
4.59648840376
 10
-74.0764069657374
 20
4.5965691385914
 10
-74.0772294503823
 20
4.59704357998019
 10
-74.0781828846342
 20
4.59762668860131
 10
-74.0818544319607
 20
4.59983841762372
  0
LWPOLYLINE
  5
2001E
  8
0
100
AcDbEntity
100
AcDbPolyline
 70
0
 90
5
 10
-74.0826192808544
 20
4.59901399476371
 10
-74.0798472403759
 20
4.5973758098806
 10
-74.0777552595931
 20
4.59613871013071
 10
-74.0766152240005
 20
4.59533210563832
 10
-74.074012701381
 20
4.59398459873662
  0
LWPOLYLINE
  5
2001F
  8
0
100
AcDbEntity
100
AcDbPolyline
 70
0
 90
8
 10
-74.0762152705677
 20
4.60484969722021
 10
-74.0753850799235
 20
4.60423130995262
 10
-74.0740351298479
 20
4.60331923016005
 10
-74.0726897581144
 20
4.60249922544675
 10
-74.0726526345113
 20
4.60240265002214
 10
-74.0722468678054
 20
4.60221189352002
 10
-74.0714161447194
 20
4.60175913126603
 10
-74.0697743184837
 20
4.60075194429887
  0
ENDSEC
  0
SECTION
  2
OBJECTS
  0
DICTIONARY
  5
C
330
0
100
AcDbDictionary
281
     1
  3
ACAD_GROUP
350
D
  0
DICTIONARY
  5
D
102
{ACAD_REACTORS
330
C
102
}
330
C
100
AcDbDictionary
281
     1
  0
ENDSEC
  0
EOF
