  0
SECTION
  2
HEADER
  9
$ACADVER
  1
AC1015
  9
$ACADMAINTVER
 70
     6
  9
$DWGCODEPAGE
  3
ANSI_1252
  9
$INSBASE
 10
0.0
 20
0.0
 30
0.0
  9
$EXTMIN
 10
-74.17516034599987
 20
4.531170926999948
 30
0.0
  9
$EXTMAX
 10
-74.02062257900002
 20
4.737142547000133
 30
0.0
  9
$LIMMIN
 10
0.0
 20
0.0
  9
$LIMMAX
 10
12.0
 20
9.0
  9
$ORTHOMODE
 70
     0
  9
$REGENMODE
 70
     1
  9
$FILLMODE
 70
     1
  9
$QTEXTMODE
 70
     0
  9
$MIRRTEXT
 70
     1
  9
$LTSCALE
 40
1.0
  9
$ATTMODE
 70
     1
  9
$TEXTSIZE
 40
0.2
  9
$TRACEWID
 40
0.05
  9
$TEXTSTYLE
  7
Standard
  9
$CLAYER
  8
0
  9
$CELTYPE
  6
ByLayer
  9
$CECOLOR
 62
   256
  9
$CELTSCALE
 40
1.0
  9
$DISPSILH
 70
     0
  9
$DIMSCALE
 40
1.0
  9
$DIMASZ
 40
0.18
  9
$DIMEXO
 40
0.0625
  9
$DIMDLI
 40
0.38
  9
$DIMRND
 40
0.0
  9
$DIMDLE
 40
0.0
  9
$DIMEXE
 40
0.18
  9
$DIMTP
 40
0.0
  9
$DIMTM
 40
0.0
  9
$DIMTXT
 40
0.18
  9
$DIMCEN
 40
0.09
  9
$DIMTSZ
 40
0.0
  9
$DIMTOL
 70
     0
  9
$DIMLIM
 70
     0
  9
$DIMTIH
 70
     1
  9
$DIMTOH
 70
     1
  9
$DIMSE1
 70
     0
  9
$DIMSE2
 70
     0
  9
$DIMTAD
 70
     0
  9
$DIMZIN
 70
     0
  9
$DIMBLK
  1

  9
$DIMASO
 70
     1
  9
$DIMSHO
 70
     1
  9
$DIMPOST
  1

  9
$DIMAPOST
  1

  9
$DIMALT
 70
     0
  9
$DIMALTD
 70
     2
  9
$DIMALTF
 40
25.4
  9
$DIMLFAC
 40
1.0
  9
$DIMTOFL
 70
     0
  9
$DIMTVP
 40
0.0
  9
$DIMTIX
 70
     0
  9
$DIMSOXD
 70
     0
  9
$DIMSAH
 70
     0
  9
$DIMBLK1
  1

  9
$DIMBLK2
  1

  9
$DIMSTYLE
  2
Standard
  9
$DIMCLRD
 70
     0
  9
$DIMCLRE
 70
     0
  9
$DIMCLRT
 70
     0
  9
$DIMTFAC
 40
1.0
  9
$DIMGAP
 40
0.09
  9
$DIMJUST
 70
     0
  9
$DIMSD1
 70
     0
  9
$DIMSD2
 70
     0
  9
$DIMTOLJ
 70
     1
  9
$DIMTZIN
 70
     0
  9
$DIMALTZ
 70
     0
  9
$DIMALTTZ
 70
     0
  9
$DIMUPT
 70
     0
  9
$DIMDEC
 70
     4
  9
$DIMTDEC
 70
     4
  9
$DIMALTU
 70
     2
  9
$DIMALTTD
 70
     2
  9
$DIMTXSTY
  7
Standard
  9
$DIMAUNIT
 70
     0
  9
$DIMADEC
 70
     0
  9
$DIMALTRND
 40
0.0
  9
$DIMAZIN
 70
     0
  9
$DIMDSEP
 70
    46
  9
$DIMATFIT
 70
     3
  9
$DIMFRAC
 70
     0
  9
$DIMLDRBLK
  1

  9
$DIMLUNIT
 70
     2
  9
$DIMLWD
 70
    -2
  9
$DIMLWE
 70
    -2
  9
$DIMTMOVE
 70
     0
  9
$LUNITS
 70
     2
  9
$LUPREC
 70
     4
  9
$SKETCHINC
 40
0.1
  9
$FILLETRAD
 40
0.5
  9
$AUNITS
 70
     0
  9
$AUPREC
 70
     0
  9
$MENU
  1
.
  9
$ELEVATION
 40
0.0
  9
$PELEVATION
 40
0.0
  9
$THICKNESS
 40
0.0
  9
$LIMCHECK
 70
     0
  9
$CHAMFERA
 40
0.0
  9
$CHAMFERB
 40
0.0
  9
$CHAMFERC
 40
0.0
  9
$CHAMFERD
 40
0.0
  9
$SKPOLY
 70
     0
  9
$TDCREATE
 40
2460119.012505996
  9
$TDUCREATE
 40
2460119.220839329
  9
$TDUPDATE
 40
2460119.012510162
  9
$TDUUPDATE
 40
2460119.220843495
  9
$TDINDWG
 40
0.0000000116
  9
$TDUSRTIMER
 40
0.0000000116
  9
$USRTIMER
 70
     1
  9
$ANGBASE
 50
0.0
  9
$ANGDIR
 70
     0
  9
$PDMODE
 70
    33
  9
$PDSIZE
 40
-3.0
  9
$PLINEWID
 40
0.0
  9
$SPLFRAME
 70
     0
  9
$SPLINETYPE
 70
     6
  9
$SPLINESEGS
 70
     8
  9
$HANDSEED
  5
135
  9
$SURFTAB1
 70
     6
  9
$SURFTAB2
 70
     6
  9
$SURFTYPE
 70
     6
  9
$SURFU
 70
     6
  9
$SURFV
 70
     6
  9
$UCSBASE
  2

  9
$UCSNAME
  2

  9
$UCSORG
 10
0.0
 20
0.0
 30
0.0
  9
$UCSXDIR
 10
1.0
 20
0.0
 30
0.0
  9
$UCSYDIR
 10
0.0
 20
1.0
 30
0.0
  9
$UCSORTHOREF
  2

  9
$UCSORTHOVIEW
 70
     0
  9
$UCSORGTOP
 10
0.0
 20
0.0
 30
0.0
  9
$UCSORGBOTTOM
 10
0.0
 20
0.0
 30
0.0
  9
$UCSORGLEFT
 10
0.0
 20
0.0
 30
0.0
  9
$UCSORGRIGHT
 10
0.0
 20
0.0
 30
0.0
  9
$UCSORGFRONT
 10
0.0
 20
0.0
 30
0.0
  9
$UCSORGBACK
 10
0.0
 20
0.0
 30
0.0
  9
$PUCSBASE
  2

  9
$PUCSNAME
  2

  9
$PUCSORG
 10
0.0
 20
0.0
 30
0.0
  9
$PUCSXDIR
 10
1.0
 20
0.0
 30
0.0
  9
$PUCSYDIR
 10
0.0
 20
1.0
 30
0.0
  9
$PUCSORTHOREF
  2

  9
$PUCSORTHOVIEW
 70
     0
  9
$PUCSORGTOP
 10
0.0
 20
0.0
 30
0.0
  9
$PUCSORGBOTTOM
 10
0.0
 20
0.0
 30
0.0
  9
$PUCSORGLEFT
 10
0.0
 20
0.0
 30
0.0
  9
$PUCSORGRIGHT
 10
0.0
 20
0.0
 30
0.0
  9
$PUCSORGFRONT
 10
0.0
 20
0.0
 30
0.0
  9
$PUCSORGBACK
 10
0.0
 20
0.0
 30
0.0
  9
$USERI1
 70
     0
  9
$USERI2
 70
     0
  9
$USERI3
 70
     0
  9
$USERI4
 70
     0
  9
$USERI5
 70
     0
  9
$USERR1
 40
0.0
  9
$USERR2
 40
0.0
  9
$USERR3
 40
0.0
  9
$USERR4
 40
0.0
  9
$USERR5
 40
0.0
  9
$WORLDVIEW
 70
     1
  9
$SHADEDGE
 70
     3
  9
$SHADEDIF
 70
    70
  9
$TILEMODE
 70
     1
  9
$MAXACTVP
 70
    64
  9
$PINSBASE
 10
0.0
 20
0.0
 30
0.0
  9
$PLIMCHECK
 70
     0
  9
$PEXTMIN
 10
1.000000000000000E+20
 20
1.000000000000000E+20
 30
1.000000000000000E+20
  9
$PEXTMAX
 10
-1.000000000000000E+20
 20
-1.000000000000000E+20
 30
-1.000000000000000E+20
  9
$PLIMMIN
 10
0.0
 20
0.0
  9
$PLIMMAX
 10
12.0
 20
9.0
  9
$UNITMODE
 70
     0
  9
$VISRETAIN
 70
     1
  9
$PLINEGEN
 70
     0
  9
$PSLTSCALE
 70
     1
  9
$TREEDEPTH
 70
  3020
  9
$CMLSTYLE
  2
Standard
  9
$CMLJUST
 70
     0
  9
$CMLSCALE
 40
1.0
  9
$PROXYGRAPHICS
 70
     1
  9
$MEASUREMENT
 70
     0
  9
$CELWEIGHT
370
    -1
  9
$ENDCAPS
280
     0
  9
$JOINSTYLE
280
     0
  9
$LWDISPLAY
290
     0
  9
$INSUNITS
 70
     1
  9
$HYPERLINKBASE
  1

  9
$STYLESHEET
  1

  9
$XEDIT
290
     1
  9
$CEPSNTYPE
380
     0
  9
$PSTYLEMODE
290
     1
  9
$FINGERPRINTGUID
  2
{96fd3f96-fe2f-4948-93d1-89089744aff2}
  9
$VERSIONGUID
  2
{FAEB1C32-E019-11D5-929B-00C0DF256EC4}
  9
$EXTNAMES
290
     1
  9
$PSVPSCALE
 40
0.0
  9
$OLESTARTUP
290
     0
  0
ENDSEC
  0
SECTION
  2
CLASSES
  0
CLASS
  1
ACDBDICTIONARYWDFLT
  2
AcDbDictionaryWithDefault
  3
ObjectDBX Classes
 90
        0
280
     0
281
     0
  0
CLASS
  1
VISUALSTYLE
  2
AcDbVisualStyle
  3
ObjectDBX Classes
 90
     4095
280
     0
281
     0
  0
CLASS
  1
MATERIAL
  2
AcDbMaterial
  3
ObjectDBX Classes
 90
     1153
280
     0
281
     0
  0
CLASS
  1
SCALE
  2
AcDbScale
  3
ObjectDBX Classes
 90
     1153
280
     0
281
     0
  0
CLASS
  1
TABLESTYLE
  2
AcDbTableStyle
  3
ObjectDBX Classes
 90
     4095
280
     0
281
     0
  0
CLASS
  1
MLEADERSTYLE
  2
AcDbMLeaderStyle
  3
ACDB_MLEADERSTYLE_CLASS
 90
     4095
280
     0
281
     0
  0
CLASS
  1
SUN
  2
AcDbSun
  3
SCENEOE
 90
     1153
280
     0
281
     0
  0
CLASS
  1
DICTIONARYVAR
  2
AcDbDictionaryVar
  3
ObjectDBX Classes
 90
        0
280
     0
281
     0
  0
CLASS
  1
ACDBPLACEHOLDER
  2
AcDbPlaceHolder
  3
ObjectDBX Classes
 90
        0
280
     0
281
     0
  0
CLASS
  1
LAYOUT
  2
AcDbLayout
  3
ObjectDBX Classes
 90
        0
280
     0
281
     0
  0
ENDSEC
  0
SECTION
  2
TABLES
  0
TABLE
  2
VPORT
  5
8
102
{ACAD_XDICTIONARY
360
FA
102
}
330
0
100
AcDbSymbolTable
 70
     1
  0
VPORT
  5
29
330
8
100
AcDbSymbolTableRecord
100
AcDbViewportTableRecord
  2
*Active
 70
     0
 10
0.0
 20
0.0
 11
1.0
 21
1.0
 12
-74.09789146249994
 22
4.63415673700004
 13
0.0
 23
0.0
 14
0.5
 24
0.5
 15
0.5
 25
0.5
 16
0.0
 26
0.0
 36
1.0
 17
0.0
 27
0.0
 37
0.0
 40
0.2100910524001881
 41
0.7502866996905359
 42
50.0
 43
0.0
 44
0.0
 50
0.0
 51
0.0
 71
     0
 72
   100
 73
     1
 74
     3
 75
     0
 76
     0
 77
     0
 78
     0
281
     0
 65
     1
110
0.0
120
0.0
130
0.0
111
1.0
121
0.0
131
0.0
112
0.0
122
1.0
132
0.0
 79
     0
146
0.0
  0
ENDTAB
  0
TABLE
  2
LTYPE
  5
5
330
0
100
AcDbSymbolTable
 70
     1
  0
LTYPE
  5
14
330
5
100
AcDbSymbolTableRecord
100
AcDbLinetypeTableRecord
  2
ByBlock
 70
     0
  3

 72
    65
 73
     0
 40
0.0
  0
LTYPE
  5
15
330
5
100
AcDbSymbolTableRecord
100
AcDbLinetypeTableRecord
  2
ByLayer
 70
     0
  3

 72
    65
 73
     0
 40
0.0
  0
LTYPE
  5
16
330
5
100
AcDbSymbolTableRecord
100
AcDbLinetypeTableRecord
  2
Continuous
 70
     0
  3
Solid line
 72
    65
 73
     0
 40
0.0
  0
ENDTAB
  0
TABLE
  2
LAYER
  5
2
330
0
100
AcDbSymbolTable
 70
     2
  0
LAYER
  5
10
330
2
100
AcDbSymbolTableRecord
100
AcDbLayerTableRecord
  2
0
 70
     0
 62
     7
  6
Continuous
370
    -3
390
F
  0
LAYER
  5
B2
330
2
100
AcDbSymbolTableRecord
100
AcDbLayerTableRecord
  2
6a
 70
     0
 62
    18
  6
Continuous
370
    60
390
F
  0
ENDTAB
  0
TABLE
  2
STYLE
  5
3
330
0
100
AcDbSymbolTable
 70
     1
  0
STYLE
  5
11
330
3
100
AcDbSymbolTableRecord
100
AcDbTextStyleTableRecord
  2
Standard
 70
     0
 40
0.0
 41
1.0
 50
0.0
 71
     0
 42
0.2
  3
txt
  4

  0
ENDTAB
  0
TABLE
  2
VIEW
  5
6
330
0
100
AcDbSymbolTable
 70
     0
  0
ENDTAB
  0
TABLE
  2
UCS
  5
7
330
0
100
AcDbSymbolTable
 70
     0
  0
ENDTAB
  0
TABLE
  2
APPID
  5
9
330
0
100
AcDbSymbolTable
 70
     2
  0
APPID
  5
12
330
9
100
AcDbSymbolTableRecord
100
AcDbRegAppTableRecord
  2
ACAD
 70
     0
  0
APPID
  5
132
330
9
100
AcDbSymbolTableRecord
100
AcDbRegAppTableRecord
  2
ACAD_MLEADERVER
 70
     0
  0
ENDTAB
  0
TABLE
  2
DIMSTYLE
  5
A
330
0
100
AcDbSymbolTable
 70
     1
100
AcDbDimStyleTable
  0
DIMSTYLE
105
27
330
A
100
AcDbSymbolTableRecord
100
AcDbDimStyleTableRecord
  2
Standard
 70
     0
178
     0
340
11
  0
ENDTAB
  0
TABLE
  2
BLOCK_RECORD
  5
1
330
0
100
AcDbSymbolTable
 70
     1
  0
BLOCK_RECORD
  5
1F
330
1
100
AcDbSymbolTableRecord
100
AcDbBlockTableRecord
  2
*Model_Space
340
22
  0
BLOCK_RECORD
  5
1B
330
1
100
AcDbSymbolTableRecord
100
AcDbBlockTableRecord
  2
*Paper_Space
340
1E
  0
BLOCK_RECORD
  5
23
330
1
100
AcDbSymbolTableRecord
100
AcDbBlockTableRecord
  2
*Paper_Space0
340
26
  0
ENDTAB
  0
ENDSEC
  0
SECTION
  2
BLOCKS
  0
BLOCK
  5
20
330
1F
100
AcDbEntity
  8
0
100
AcDbBlockBegin
  2
*Model_Space
 70
     0
 10
0.0
 20
0.0
 30
0.0
  3
*Model_Space
  1

  0
ENDBLK
  5
21
330
1F
100
AcDbEntity
  8
0
100
AcDbBlockEnd
  0
BLOCK
  5
1C
330
1B
100
AcDbEntity
 67
     1
  8
0
100
AcDbBlockBegin
  2
*Paper_Space
 70
     0
 10
0.0
 20
0.0
 30
0.0
  3
*Paper_Space
  1

  0
ENDBLK
  5
1D
330
1B
100
AcDbEntity
 67
     1
  8
0
100
AcDbBlockEnd
  0
BLOCK
  5
24
330
23
100
AcDbEntity
  8
0
100
AcDbBlockBegin
  2
*Paper_Space0
 70
     0
 10
0.0
 20
0.0
 30
0.0
  3
*Paper_Space0
  1

  0
ENDBLK
  5
25
330
23
100
AcDbEntity
  8
0
100
AcDbBlockEnd
  0
ENDSEC
  0
SECTION
  2
ENTITIES
  0
LWPOLYLINE
  5
B3
330
1F
100
AcDbEntity
  8
6a
100
AcDbPolyline
 90
        8
 70
     1
 43
0.0
 10
-74.16441801600001
 20
4.567676263000067
 10
-74.16431197799994
 20
4.567701559000056
 10
-74.16443312299992
 20
4.567518606000078
 10
-74.164384746
 20
4.567489057999978
 10
-74.16427915899999
 20
4.567424565000067
 10
-74.16444172500002
 20
4.567168476999996
 10
-74.16438443499999
 20
4.567480681999996
 10
-74.164593594
 20
4.567527922000011
  0
LWPOLYLINE
  5
B4
330
1F
100
AcDbEntity
  8
6a
100
AcDbPolyline
 90
       11
 70
     1
 43
0.0
 10
-74.15932699299998
 20
4.548204856000098
 10
-74.159451838
 20
4.54789470999998
 10
-74.15976536900001
 20
4.548043280999934
 10
-74.15976945099999
 20
4.548045215000116
 10
-74.15975866899998
 20
4.548074150000105
 10
-74.159751701
 20
4.548092848000067
 10
-74.15974163099997
 20
4.548119869000061
 10
-74.15974071699998
 20
4.548122321999983
 10
-74.15973932099996
 20
4.548126054000136
 10
-74.15954122300002
 20
4.548052775000031
 10
-74.15947067600001
 20
4.548256118999973
  0
LWPOLYLINE
  5
B5
330
1F
100
AcDbEntity
  8
6a
100
AcDbPolyline
 90
       27
 70
     1
 43
0.0
 10
-74.170045947
 20
4.574570536000067
 10
-74.17016762499986
 20
4.574504136000087
 10
-74.17030205599997
 20
4.574514204000025
 10
-74.17041969399992
 20
4.57439137700004
 10
-74.17046758999999
 20
4.574284728000009
 10
-74.17085199600001
 20
4.574661633000062
 10
-74.17094880299999
 20
4.574756549999961
 10
-74.17095611999997
 20
4.574763725000139
 10
-74.17096596300001
 20
4.574773375999939
 10
-74.17099214999996
 20
4.574798028000032
 10
-74.17075376999986
 20
4.575047627000004
 10
-74.17070443499995
 20
4.575079916000107
 10
-74.17068727600002
 20
4.575122249000117
 10
-74.17060683399995
 20
4.575052295000035
 10
-74.17068861299998
 20
4.574960865000094
 10
-74.170674841
 20
4.574949088000096
 10
-74.17078614499997
 20
4.574826098000074
 10
-74.17043790700001
 20
4.574501113000053
 10
-74.17023363999999
 20
4.574722696000038
 10
-74.17038056499996
 20
4.574871240999983
 10
-74.17035524200003
 20
4.574892169000123
 10
-74.17046309899996
 20
4.575006599000005
 10
-74.17066926299998
 20
4.57516182300003
 10
-74.17064910900001
 20
4.575210616999982
 10
-74.17031536399992
 20
4.574956910000026
 10
-74.17021798500002
 20
4.574903735000021
 10
-74.17005483100002
 20
4.574724690000039
  0
LWPOLYLINE
  5
B6
330
1F
100
AcDbEntity
  8
6a
100
AcDbPolyline
 90
       32
 70
     1
 43
0.0
 10
-74.16613096700002
 20
4.567637617000116
 10
-74.16612897700003
 20
4.567642134000039
 10
-74.16612497800003
 20
4.567650798000045
 10
-74.16612082799998
 20
4.567659392000053
 10
-74.16611652999995
 20
4.567667913000093
 10
-74.16611208500001
 20
4.567676355999993
 10
-74.16610749099999
 20
4.567684719000056
 10
-74.16610275499988
 20
4.567693001000066
 10
-74.16609787499999
 20
4.567701198999998
 10
-74.16609285299995
 20
4.56770931200009
 10
-74.16608769099997
 20
4.567717333000132
 10
-74.166082389
 20
4.567725265000036
 10
-74.16607695099998
 20
4.567733100999988
 10
-74.16607137800003
 20
4.567740839999999
 10
-74.16606567100001
 20
4.567748482000127
 10
-74.16605983099998
 20
4.567756022000026
 10
-74.16605386100002
 20
4.567763459000048
 10
-74.16604776399993
 20
4.567770789999997
 10
-74.16604153899999
 20
4.567778014999988
 10
-74.16603078899999
 20
4.567789915000105
 10
-74.16601639800001
 20
4.567800883000075
 10
-74.16600181599995
 20
4.567811597999992
 10
-74.165987051
 20
4.567822055000079
 10
-74.16597210599991
 20
4.567832253000006
 10
-74.16595012299996
 20
4.567846574000043
 10
-74.16595012499994
 20
4.56784653699998
 10
-74.165977854
 20
4.56751153600004
 10
-74.165818677
 20
4.567493902000024
 10
-74.16577144399992
 20
4.567490298000052
 10
-74.16631683600002
 20
4.56720286400008
 10
-74.16613652199999
 20
4.567624599000055
 10
-74.16613282499998
 20
4.567633400000034
  0
LWPOLYLINE
  5
B8
102
{ACAD_REACTORS
330
B7
102
}
330
1F
100
AcDbEntity
  8
6a
100
AcDbPolyline
 90
       49
 70
     1
 43
0.0
 10
-74.16494282000002
 20
4.566455869000038
 10
-74.16494550299996
 20
4.566452155000036
 10
-74.16501079099993
 20
4.566492821000054
 10
-74.16491621699993
 20
4.566554010000061
 10
-74.16486969900001
 20
4.566657464999992
 10
-74.16474551599993
 20
4.566607126000008
 10
-74.16475012199999
 20
4.566605316999926
 10
-74.16475528599995
 20
4.566603223000129
 10
-74.16475981099995
 20
4.56660124800004
 10
-74.164764316
 20
4.566599341000142
 10
-74.16476937200002
 20
4.566597025000135
 10
-74.16477386199989
 20
4.566594920999989
 10
-74.16477821699999
 20
4.56659283099998
 10
-74.16478282499992
 20
4.566590624000071
 10
-74.16478775199988
 20
4.5665880950001
 10
-74.16479171600002
 20
4.56658601800001
 10
-74.16479619499995
 20
4.566583720999915
 10
-74.16480144299993
 20
4.566580847999944
 10
-74.16480595299998
 20
4.566578214999993
 10
-74.164809827
 20
4.566575954000086
 10
-74.164814745
 20
4.56657308500013
 10
-74.16481891899997
 20
4.56657039199996
 10
-74.16482279299993
 20
4.566568043999951
 10
-74.1648275799999
 20
4.56656495499999
 10
-74.16483161199994
 20
4.566562257000101
 10
-74.16483567400002
 20
4.566559573000063
 10
-74.16484045499999
 20
4.566556258999981
 10
-74.16484456199998
 20
4.566553271999965
 10
-74.16484860600002
 20
4.566550330000098
 10
-74.16485264699992
 20
4.566547262000029
 10
-74.16485677499998
 20
4.566544158000113
 10
-74.16486882700002
 20
4.566534542000056
 10
-74.16487282700001
 20
4.566531055000041
 10
-74.16487683199995
 20
4.566527673999985
 10
-74.16488016399995
 20
4.566524598000115
 10
-74.16488388599993
 20
4.566521453999997
 10
-74.16488833699992
 20
4.566517228000009
 10
-74.16489184899996
 20
4.566513899000029
 10
-74.164895645
 20
4.566510196000138
 10
-74.16490600899999
 20
4.566499796000016
 10
-74.16490985599995
 20
4.566495709000094
 10
-74.16491343999996
 20
4.56649179499999
 10
-74.164916678
 20
4.566488150000112
 10
-74.16492012099991
 20
4.566484278000132
 10
-74.16492359900002
 20
4.566480151999997
 10
-74.16492988700003
 20
4.566472658000066
 10
-74.16493336299993
 20
4.566468271000133
 10
-74.1649361549999
 20
4.566464655000004
 10
-74.16493941099998
 20
4.566460543000062
  0
LWPOLYLINE
  5
B9
102
{ACAD_REACTORS
330
B7
102
}
330
1F
100
AcDbEntity
  8
6a
100
AcDbPolyline
 90
        5
 70
     1
 43
0.0
 10
-74.16512957200001
 20
4.566433300000028
 10
-74.165167198
 20
4.566320110999982
 10
-74.16520320899997
 20
4.56640885500002
 10
-74.16523425999998
 20
4.566510866000044
 10
-74.16524393499998
 20
4.566615273000082
  0
LWPOLYLINE
  5
BA
102
{ACAD_REACTORS
330
B7
102
}
330
1F
100
AcDbEntity
  8
6a
100
AcDbPolyline
 90
        9
 70
     1
 43
0.0
 10
-74.16518908099994
 20
4.566760498000065
 10
-74.16527589600003
 20
4.566704919000017
 10
-74.16528782399996
 20
4.566742946000033
 10
-74.16529079499992
 20
4.566778204000116
 10
-74.16529227799998
 20
4.566809492000061
 10
-74.16529277299992
 20
4.566834321999977
 10
-74.16528980499993
 20
4.566863126000044
 10
-74.16528584799988
 20
4.566887955000084
 10
-74.16528134399994
 20
4.566905619000124
  0
LWPOLYLINE
  5
BB
330
1F
100
AcDbEntity
  8
6a
100
AcDbPolyline
 90
        3
 70
     1
 43
0.0
 10
-74.16843275500003
 20
4.566803909999919
 10
-74.168294038
 20
4.566974155000082
 10
-74.16830627099995
 20
4.566671763000102
  0
LWPOLYLINE
  5
BD
102
{ACAD_REACTORS
330
BC
102
}
330
1F
100
AcDbEntity
  8
6a
100
AcDbPolyline
 90
      188
 70
     1
 43
0.0
 10
-74.1099666909999
 20
4.541171565000013
 10
-74.10996922700002
 20
4.541171552000094
 10
-74.10997176400002
 20
4.541171582999993
 10
-74.109974298
 20
4.54117165800011
 10
-74.10997683199992
 20
4.541171776999988
 10
-74.10997936299998
 20
4.541171941000016
 10
-74.10998189200001
 20
4.541172149000033
 10
-74.10998441399994
 20
4.541172403000076
 10
-74.10998693399995
 20
4.541172700000004
 10
-74.10998944800002
 20
4.541173040999922
 10
-74.10999195400001
 20
4.541173424000078
 10
-74.10999445399995
 20
4.541173854000078
 10
-74.10999694700001
 20
4.541174325999975
 10
-74.109999431
 20
4.541174843000078
 10
-74.11000190399994
 20
4.541175402000022
 10
-74.11000436799998
 20
4.541176005000011
 10
-74.11000682100001
 20
4.541176649999954
 10
-74.11000926299994
 20
4.541177338000011
 10
-74.11001169199989
 20
4.541178070000115
 10
-74.11001410799997
 20
4.541178843000068
 10
-74.11001651100003
 20
4.541179659000136
 10
-74.11001889800002
 20
4.541180517999919
 10
-74.11002127099988
 20
4.541181416000029
 10
-74.11002362699998
 20
4.541182358000071
 10
-74.110025968
 20
4.541183339999975
 10
-74.11002829
 20
4.541184363000013
 10
-74.11003059500001
 20
4.541185425000094
 10
-74.11003287999995
 20
4.541186530000061
 10
-74.11003514499998
 20
4.541187673000081
 10
-74.11003739099999
 20
4.541188857000009
 10
-74.110039616
 20
4.541190078
 10
-74.11004181999999
 20
4.541191339000022
 10
-74.11004399999996
 20
4.541192638000041
 10
-74.11004615799999
 20
4.541193975999988
 10
-74.11004829199999
 20
4.541195350999999
 10
-74.11005040199996
 20
4.54119676300013
 10
-74.11005248699996
 20
4.541198211999983
 10
-74.11005454799988
 20
4.541199696000092
 10
-74.11005658099998
 20
4.54120121699998
 10
-74.11005858899995
 20
4.541202773999998
 10
-74.11006056799994
 20
4.541204365000056
 10
-74.110062519
 20
4.541205992000073
 10
-74.110064443
 20
4.541207650000047
 10
-74.11006633499994
 20
4.541209344000038
 10
-74.11006819900001
 20
4.541211069000042
 10
-74.110070033
 20
4.541212828000141
 10
-74.11007183599997
 20
4.541214618000083
 10
-74.11007360699995
 20
4.541216438999982
 10
-74.11007534700002
 20
4.541218292000053
 10
-74.11007705299994
 20
4.541220174000046
 10
-74.11007872800002
 20
4.541222086000005
 10
-74.11008036799996
 20
4.541224027000055
 10
-74.110081976
 20
4.54122599599998
 10
-74.11008354799998
 20
4.541227995000042
 10
-74.11008508399999
 20
4.541230019000011
 10
-74.11008658699996
 20
4.541232069999921
 10
-74.11008805099999
 20
4.541234147000011
 10
-74.11008948199992
 20
4.541236250000111
 10
-74.11009087299993
 20
4.541238376000081
 10
-74.11009222899997
 20
4.541240528000117
 10
-74.11009476800001
 20
4.541244798000093
 10
-74.11031854799995
 20
4.54159006499998
 10
-74.11050394799992
 20
4.541862830000071
 10
-74.110504725
 20
4.541863993999982
 10
-74.11050548199995
 20
4.541865172000087
 10
-74.11050569700001
 20
4.541865522000137
 10
-74.11050621700002
 20
4.541866364000043
 10
-74.11050693099992
 20
4.541867567000054
 10
-74.11050762599996
 20
4.54186878400003
 10
-74.11050829899995
 20
4.541870010000139
 10
-74.110508949
 20
4.541871250999975
 10
-74.11050957799995
 20
4.54187250199999
 10
-74.110510186
 20
4.541873763000012
 10
-74.11051077199988
 20
4.541875034999919
 10
-74.110511336
 20
4.54187631700006
 10
-74.11051187699996
 20
4.54187760800005
 10
-74.110512395
 20
4.541878911000083
 10
-74.11051289199997
 20
4.54188022000011
 10
-74.11051336399998
 20
4.541881538999917
 10
-74.11051381299995
 20
4.541882865000048
 10
-74.11051423999999
 20
4.541884200000084
 10
-74.11051464399992
 20
4.54188554000001
 10
-74.11051502399988
 20
4.541886888000136
 10
-74.11051537999998
 20
4.54188824300013
 10
-74.11051571399992
 20
4.541889604000005
 10
-74.11051602299995
 20
4.541890970999987
 10
-74.11051630999998
 20
4.54189234200004
 10
-74.11051657000002
 20
4.541893719000086
 10
-74.110516808
 20
4.54189510000009
 10
-74.11051702100002
 20
4.541896484000006
 10
-74.11051721099994
 20
4.541897871999936
 10
-74.11051737599996
 20
4.541899263000005
 10
-74.110517517
 20
4.541900658000031
 10
-74.11051763400002
 20
4.541902053000058
 10
-74.110517727
 20
4.541903452000042
 10
-74.11051779500002
 20
4.541904852000016
 10
-74.11051783900001
 20
4.541906253000036
 10
-74.11051785799992
 20
4.541907652999953
 10
-74.11051785299992
 20
4.541909053999973
 10
-74.110517824
 20
4.54191045500005
 10
-74.11051777099999
 20
4.54191185600007
 10
-74.11051769199992
 20
4.541913255000054
 10
-74.11051759100002
 20
4.541914652000116
 10
-74.11051746300001
 20
4.541916046999972
 10
-74.11051731299989
 20
4.541917439999963
 10
-74.11051713699987
 20
4.541918831000032
 10
-74.11051693799993
 20
4.54192021800003
 10
-74.11051671500002
 20
4.54192160100007
 10
-74.11051646800001
 20
4.541922980000095
 10
-74.11051619599999
 20
4.541924355000106
 10
-74.11051590099993
 20
4.541925725000056
 10
-74.110515583
 20
4.541927088999955
 10
-74.11051523999998
 20
4.541928447000089
 10
-74.11051487499986
 20
4.541929800000105
 10
-74.11051448400002
 20
4.541931144999978
 10
-74.11051407099995
 20
4.541932483000096
 10
-74.11051363500002
 20
4.541933814999993
 10
-74.11051317699997
 20
4.541935138000042
 10
-74.11051269499995
 20
4.541936453000062
 10
-74.11051218799997
 20
4.541937760000053
 10
-74.11051166099998
 20
4.541939057000093
 10
-74.110511111
 20
4.541940345
 10
-74.11051053900002
 20
4.541941622000024
 10
-74.110509944
 20
4.541942889999973
 10
-74.11050932699993
 20
4.541944148000084
 10
-74.11050868899997
 20
4.541945393999981
 10
-74.11050803
 20
4.541946628000062
 10
-74.11050734799994
 20
4.541947851000089
 10
-74.11050664499999
 20
4.541949063000004
 10
-74.11050592200002
 20
4.541950262000057
 10
-74.11050517899997
 20
4.541951448000134
 10
-74.11050441399999
 20
4.541952620000075
 10
-74.110503628
 20
4.541953777999993
 10
-74.11050282399992
 20
4.541954922999992
 10
-74.11050199999994
 20
4.541956054000138
 10
-74.11050115599988
 20
4.541957170000046
 10
-74.110500291
 20
4.541958271000055
 10
-74.110499409
 20
4.541959356999996
 10
-74.11049850799992
 20
4.541960427999982
 10
-74.11049758699994
 20
4.54196148200009
 10
-74.11049665099995
 20
4.541962520000141
 10
-74.11049569399995
 20
4.541963540999973
 10
-74.11049471999996
 20
4.541964545999974
 10
-74.11049372899998
 20
4.541965532999939
 10
-74.110492722
 20
4.541966503000026
 10
-74.11049169699999
 20
4.541967455000133
 10
-74.11049065700001
 20
4.541968389000033
 10
-74.110489599
 20
4.54196930400002
 10
-74.11048852599998
 20
4.541970202000073
 10
-74.110487438
 20
4.541971079999996
 10
-74.1104862869999
 20
4.54197197600007
 10
-74.1105421499999
 20
4.542050399000061
 10
-74.11045169799996
 20
4.542109774999972
 10
-74.10890091800002
 20
4.541861568000002
 10
-74.10896300999997
 20
4.541817618000096
 10
-74.10988788100002
 20
4.541196204000016
 10
-74.10989000099994
 20
4.541194804999975
 10
-74.10989214599994
 20
4.541193445000033
 10
-74.10989431299993
 20
4.54119212400002
 10
-74.10989650200003
 20
4.541190838999967
 10
-74.10989871299995
 20
4.541189594000002
 10
-74.10990094799996
 20
4.541188386000044
 10
-74.10990320099995
 20
4.541187219000051
 10
-74.10990547399996
 20
4.541186090999929
 10
-74.10990776699998
 20
4.541185002000134
 10
-74.10991007899992
 20
4.541183955000122
 10
-74.10991240800001
 20
4.541182949000074
 10
-74.10991475399993
 20
4.541181982999944
 10
-74.10991711699995
 20
4.541181059000053
 10
-74.10991949499999
 20
4.541180175000022
 10
-74.10992189000001
 20
4.541179333999992
 10
-74.10992429800001
 20
4.541178533999926
 10
-74.10992671999998
 20
4.541177778000076
 10
-74.10992915399999
 20
4.541177062000031
 10
-74.10993159999992
 20
4.541176391000022
 10
-74.10993405699986
 20
4.54117576200008
 10
-74.10993652599996
 20
4.541175177000127
 10
-74.10993900400001
 20
4.541174635000061
 10
-74.10994149099992
 20
4.541174136000109
 10
-74.10994398599996
 20
4.541173680000099
 10
-74.10994648799999
 20
4.541173268000023
 10
-74.10994899799994
 20
4.541172901000095
 10
-74.10995151499998
 20
4.541172577999987
 10
-74.10995403599998
 20
4.541172299000038
 10
-74.10995655999994
 20
4.541172063000033
 10
-74.10995908899997
 20
4.54117187200012
 10
-74.10996162100002
 20
4.541171724000094
 10
-74.10996415699987
 20
4.541171622000093
  0
LWPOLYLINE
  5
BE
102
{ACAD_REACTORS
330
BC
102
}
330
1F
100
AcDbEntity
  8
6a
100
AcDbPolyline
 90
       84
 70
     1
 43
0.0
 10
-74.10909520399997
 20
4.542294927000057
 10
-74.108925538
 20
4.542039073000012
 10
-74.10949636799995
 20
4.542127817999983
 10
-74.109188518
 20
4.54231046000001
 10
-74.10918740699998
 20
4.542311105000124
 10
-74.10918628499996
 20
4.542311732000087
 10
-74.10918515199995
 20
4.542312339000034
 10
-74.10918400899999
 20
4.54231292500009
 10
-74.10918285499997
 20
4.542313492000062
 10
-74.10918169199994
 20
4.542314037999915
 10
-74.10918052099993
 20
4.54231456399998
 10
-74.10917934000003
 20
4.542315070000029
 10
-74.10917814999993
 20
4.54231555500013
 10
-74.109177988
 20
4.542315616999986
 10
-74.10917695199998
 20
4.542316018000122
 10
-74.109175746
 20
4.542316461000041
 10
-74.109174532
 20
4.542316881999966
 10
-74.109173312
 20
4.542317283000102
 10
-74.10917208399997
 20
4.542317662000073
 10
-74.10917085099993
 20
4.542318018999993
 10
-74.10916961100003
 20
4.542318353999917
 10
-74.10916836500002
 20
4.542318668000121
 10
-74.109167114
 20
4.542318959999989
 10
-74.10916585899997
 20
4.542319230000032
 10
-74.10916459799995
 20
4.542319478000024
 10
-74.10916333499995
 20
4.542319702999976
 10
-74.109162067
 20
4.542319906999978
 10
-74.10916079499998
 20
4.542320088000054
 10
-74.10915952099998
 20
4.542320247000021
 10
-74.10915824399996
 20
4.542320384000107
 10
-74.10915696499995
 20
4.542320498000095
 10
-74.10915568399992
 20
4.542320589999918
 10
-74.10915440299999
 20
4.54232065900004
 10
-74.10915311899998
 20
4.542320707000044
 10
-74.10915183499998
 20
4.542320731000018
 10
-74.10915055100003
 20
4.542320733999929
 10
-74.10914926700002
 20
4.542320711999935
 10
-74.10914798499999
 20
4.542320669999924
 10
-74.10914670199998
 20
4.542320605000043
 10
-74.10914541999989
 20
4.542320517000007
 10
-74.10914414099994
 20
4.542320407000034
 10
-74.10914286399992
 20
4.542320274000076
 10
-74.10914158999992
 20
4.542320120000056
 10
-74.10914031699991
 20
4.54231994099996
 10
-74.1091390499999
 20
4.542319743000121
 10
-74.10913778399998
 20
4.542319520000035
 10
-74.10913652199997
 20
4.542319277000104
 10
-74.109135267
 20
4.542319009999972
 10
-74.109134015
 20
4.542318723000051
 10
-74.109132768
 20
4.542318413000032
 10
-74.10913152799998
 20
4.542318082000065
 10
-74.10913029299996
 20
4.542317728000057
 10
-74.10912906399994
 20
4.542317354000033
 10
-74.10912784200002
 20
4.542316958000015
 10
-74.10912662800001
 20
4.542316539999945
 10
-74.10912542
 20
4.54231610100004
 10
-74.109124221
 20
4.542315640999959
 10
-74.10912302899999
 20
4.542315160000044
 10
-74.109121846
 20
4.542314659000056
 10
-74.10912067299995
 20
4.54231413600013
 10
-74.10911950899998
 20
4.542313594000063
 10
-74.10911835299987
 20
4.542313031000106
 10
-74.10911720799993
 20
4.542312447000086
 10
-74.10911607499986
 20
4.542311844000096
 10
-74.10911494899995
 20
4.54231122200008
 10
-74.109113836
 20
4.542310579000116
 10
-74.10911273599993
 20
4.542309916000136
 10
-74.10911164499993
 20
4.542309235000005
 10
-74.10911056600003
 20
4.542308536000007
 10
-74.10910950200002
 20
4.542307816000118
 10
-74.10910844799992
 20
4.542307078999954
 10
-74.10910740799994
 20
4.542306323999981
 10
-74.10910638099995
 20
4.542305549999924
 10
-74.10910536699993
 20
4.542304758000057
 10
-74.10910436900002
 20
4.542303949000086
 10
-74.10910338399998
 20
4.542303122000078
 10
-74.10910241299996
 20
4.542302278000022
 10
-74.109101458
 20
4.542301418000136
 10
-74.109100517
 20
4.542300540000042
 10
-74.109099592
 20
4.54229964700005
 10
-74.10909868200002
 20
4.542298736000077
 10
-74.10909779000002
 20
4.542297811000083
 10
-74.10909691199987
 20
4.542296869999916
 10
-74.109095234
 20
4.542294971000047
  0
LWPOLYLINE
  5
BF
102
{ACAD_REACTORS
330
BC
102
}
330
1F
100
AcDbEntity
  8
6a
100
AcDbPolyline
 90
      114
 70
     1
 43
0.0
 10
-74.10998286899996
 20
4.542417525999952
 10
-74.10992994999998
 20
4.542340738000007
 10
-74.10989527800001
 20
4.542362528000012
 10
-74.10989443199998
 20
4.542363050000063
 10
-74.10989357699998
 20
4.542363557000044
 10
-74.10989271400001
 20
4.542364049000071
 10
-74.10989184099992
 20
4.54236452400005
 10
-74.10989095999992
 20
4.542364986000052
 10
-74.10989007299986
 20
4.542365431000007
 10
-74.10988917599997
 20
4.54236586199994
 10
-74.10988827299997
 20
4.542366275999996
 10
-74.109887362
 20
4.54236667400005
 10
-74.10988644499992
 20
4.542367056999979
 10
-74.10988552100002
 20
4.542367422999973
 10
-74.10988459100003
 20
4.54236777199992
 10
-74.10988365600002
 20
4.542368105000037
 10
-74.10988271399998
 20
4.542368423000084
 10
-74.10988176599989
 20
4.542368724000028
 10
-74.109880815
 20
4.542369006999934
 10
-74.109879858
 20
4.542369274999999
 10
-74.10987889699999
 20
4.542369526000073
 10
-74.10987793100003
 20
4.542369760000099
 10
-74.10987696199993
 20
4.542369977000021
 10
-74.10987598899993
 20
4.542370176000134
 10
-74.10987501199986
 20
4.542370359000074
 10
-74.10987403299987
 20
4.542370523999978
 10
-74.10987304999998
 20
4.542370673000107
 10
-74.10987206599998
 20
4.542370804000029
 10
-74.10987107999989
 20
4.542370917000085
 10
-74.109870091
 20
4.542371014000025
 10
-74.1098691009999
 20
4.542371092999929
 10
-74.10986810999998
 20
4.542371155000126
 10
-74.10986711800001
 20
4.542371199000115
 10
-74.109866124
 20
4.542371226000057
 10
-74.10986513199992
 20
4.542371236000065
 10
-74.10986413799992
 20
4.542371230000072
 10
-74.10986314600001
 20
4.542371204000062
 10
-74.10986215299994
 20
4.542371161000119
 10
-74.10986116199996
 20
4.542371101000128
 10
-74.10986017099998
 20
4.542371024000033
 10
-74.10985918299997
 20
4.542370930000004
 10
-74.10985819599989
 20
4.542370817000119
 10
-74.10985721099996
 20
4.542370689999984
 10
-74.109856229
 20
4.542370542000015
 10
-74.10985524900002
 20
4.54237037900009
 10
-74.109854272
 20
4.542370199000061
 10
-74.10985329900001
 20
4.542370001000052
 10
-74.10985233000002
 20
4.542369786000108
 10
-74.10985136300002
 20
4.542369554000061
 10
-74.10985040199995
 20
4.542369306000069
 10
-74.10984944399996
 20
4.54236904000004
 10
-74.10984849099998
 20
4.542368758000009
 10
-74.10984754399999
 20
4.542368459000102
 10
-74.109846602
 20
4.542368144000136
 10
-74.10984566500002
 20
4.542367812000123
 10
-74.10984473399992
 20
4.542367464999984
 10
-74.10984380999992
 20
4.542367100000035
 10
-74.10984289299995
 20
4.542366718999915
 10
-74.10984198099999
 20
4.542366323000067
 10
-74.109841077
 20
4.542365909999944
 10
-74.10984017999999
 20
4.542365482000093
 10
-74.10983929100001
 20
4.542365038000071
 10
-74.10983840900002
 20
4.542364578999923
 10
-74.10983753499994
 20
4.542364104000001
 10
-74.10983667099998
 20
4.542363615000056
 10
-74.109835815
 20
4.542363109000007
 10
-74.10983496699998
 20
4.542362588999936
 10
-74.10983413000002
 20
4.542362055000069
 10
-74.10983330099998
 20
4.542361505000031
 10
-74.10983248099996
 20
4.54236094099997
 10
-74.10983167299992
 20
4.542360364000047
 10
-74.10983087300002
 20
4.542359771999998
 10
-74.10983008399995
 20
4.542359166000097
 10
-74.109829306
 20
4.542358546999992
 10
-74.10982854000002
 20
4.542357912
 10
-74.10982778399995
 20
4.542357267000057
 10
-74.10982703999997
 20
4.542356606999988
 10
-74.109826306
 20
4.542355934
 10
-74.10982558500001
 20
4.542355249000082
 10
-74.10982487599995
 20
4.542354550000084
 10
-74.10982417899999
 20
4.542353840000033
 10
-74.10982349499994
 20
4.542353117999994
 10
-74.109822823
 20
4.542352384000083
 10
-74.10982216399992
 20
4.542351638000014
 10
-74.10982151899998
 20
4.542350881999937
 10
-74.10982088599991
 20
4.542350112999998
 10
-74.10982026699986
 20
4.542349333000118
 10
-74.10981966099996
 20
4.54234854300006
 10
-74.109819071
 20
4.542347742999993
 10
-74.10981849199999
 20
4.542346931999987
 10
-74.10981792899992
 20
4.542346111000029
 10
-74.10981737999998
 20
4.542345281000109
 10
-74.109816846
 20
4.542344441000068
 10
-74.10981632599999
 20
4.542343590999963
 10
-74.10981582099993
 20
4.542342733000112
 10
-74.109815331
 20
4.542341866000129
 10
-74.10981485600001
 20
4.542340990000014
 10
-74.10981439699998
 20
4.54234010700003
 10
-74.10981395399995
 20
4.542339216000073
 10
-74.109813524
 20
4.542338315999984
 10
-74.109813111
 20
4.542337410000073
 10
-74.10981271399993
 20
4.542336496000019
 10
-74.10981233299998
 20
4.542335576000141
 10
-74.10981196899996
 20
4.542334648000065
 10
-74.10981162000002
 20
4.542333715000041
 10
-74.109811288
 20
4.542332774999977
 10
-74.10981097099989
 20
4.54233183100007
 10
-74.10981067300003
 20
4.542330880999998
 10
-74.10981038800003
 20
4.542329925999979
 10
-74.109810122
 20
4.542328966000127
 10
-74.10980976899998
 20
4.542327575000058
 10
-74.10980974099988
 20
4.542327455999953
 10
-74.10971074100001
 20
4.542155319000017
 10
-74.11024817200001
 20
4.542243374000122
  0
LWPOLYLINE
  5
C0
102
{ACAD_REACTORS
330
BC
102
}
330
1F
100
AcDbEntity
  8
6a
100
AcDbPolyline
 90
        7
 70
     1
 43
0.0
 10
-74.11047079699995
 20
4.542160175000106
 10
-74.110537803
 20
4.542117676000032
 10
-74.110705499
 20
4.542195254000035
 10
-74.11067650299998
 20
4.542256487000031
 10
-74.11065330799994
 20
4.542305472999999
 10
-74.11053315700002
 20
4.542254075000017
 10
-74.110413236
 20
4.542202162000081
  0
LWPOLYLINE
  5
C1
102
{ACAD_REACTORS
330
BC
102
}
330
1F
100
AcDbEntity
  8
6a
100
AcDbPolyline
 90
        3
 70
     1
 43
0.0
 10
-74.11015128999998
 20
4.54241962399999
 10
-74.11030313700002
 20
4.542323915000111
 10
-74.11024412
 20
4.542458339000063
  0
LWPOLYLINE
  5
C3
102
{ACAD_REACTORS
330
C2
102
}
330
1F
100
AcDbEntity
  8
6a
100
AcDbPolyline
 90
        4
 70
     1
 43
0.0
 10
-74.16494616900002
 20
4.56433351700008
 10
-74.16505166500002
 20
4.564138788000037
 10
-74.16524159399995
 20
4.564242419000038
 10
-74.16516986599999
 20
4.564374803000135
  0
LWPOLYLINE
  5
C4
102
{ACAD_REACTORS
330
C2
102
}
330
1F
100
AcDbEntity
  8
6a
100
AcDbPolyline
 90
        4
 70
     1
 43
0.0
 10
-74.16522273599998
 20
4.564380805000098
 10
-74.16528417799992
 20
4.564265143000114
 10
-74.16547795899999
 20
4.564378487999988
 10
-74.16544203199993
 20
4.564440342000125
  0
LWPOLYLINE
  5
C6
102
{ACAD_REACTORS
330
C5
102
}
330
1F
100
AcDbEntity
  8
6a
100
AcDbPolyline
 90
      119
 70
     1
 43
0.0
 10
-74.16370285800002
 20
4.563204352000014
 10
-74.16370736200003
 20
4.563204353000117
 10
-74.16371186600003
 20
4.563204534000022
 10
-74.16371636999997
 20
4.563204626000015
 10
-74.16372087399998
 20
4.563204804000065
 10
-74.16372537799998
 20
4.563205076000088
 10
-74.16372988299992
 20
4.56320534800011
 10
-74.16373438599993
 20
4.563205620000133
 10
-74.16373888999988
 20
4.563206069999978
 10
-74.16374330299999
 20
4.563206521000097
 10
-74.163747807
 20
4.563206884000067
 10
-74.163752311
 20
4.563207516000091
 10
-74.16375672499993
 20
4.563208059000033
 10
-74.16376122899993
 20
4.56320869000001
 10
-74.16376564299998
 20
4.563209323000137
 10
-74.16377005699997
 20
4.563210046000108
 10
-74.16377456099997
 20
4.563210769000079
 10
-74.16377897500001
 20
4.563211674000058
 10
-74.163783389
 20
4.563212487000044
 10
-74.16378780299999
 20
4.563213390000044
 10
-74.16379221699992
 20
4.563214295000023
 10
-74.16379663100003
 20
4.563215288000038
 10
-74.16380095400001
 20
4.563216373999921
 10
-74.16371991699998
 20
4.563297406000061
 10
-74.16370960900002
 20
4.563299924000091
 10
-74.16370284499999
 20
4.563301010000032
 10
-74.16369620399996
 20
4.563302373000056
 10
-74.16368967299996
 20
4.563303494000024
 10
-74.16368316199998
 20
4.563304727999991
 10
-74.16367667299994
 20
4.563306078000096
 10
-74.16367020999996
 20
4.563307538000004
 10
-74.16366377099996
 20
4.563309111999956
 10
-74.16365736199998
 20
4.563310800000124
 10
-74.16365098299997
 20
4.563312598999971
 10
-74.16364463599996
 20
4.563314510000055
 10
-74.16363832399998
 20
4.563316532000044
 10
-74.16363204700002
 20
4.563318663000132
 10
-74.16362580999993
 20
4.563320904000079
 10
-74.16361960999996
 20
4.563323255
 10
-74.16361345499996
 20
4.563325714000086
 10
-74.16360734099999
 20
4.563328279000075
 10
-74.16360127399986
 20
4.563330952000001
 10
-74.16359525399997
 20
4.563333730999943
 10
-74.16358928400001
 20
4.563336613000047
 10
-74.16358336399998
 20
4.563339601999985
 10
-74.163577497
 20
4.563342692999981
 10
-74.16357168399998
 20
4.563345885999979
 10
-74.16356592999995
 20
4.563349180000102
 10
-74.16356023100002
 20
4.563352575000124
 10
-74.163554594
 20
4.563356069000065
 10
-74.16354901899996
 20
4.563359660999993
 10
-74.16354350499995
 20
4.563363350000031
 10
-74.16353805799997
 20
4.563367135999954
 10
-74.16353267699986
 20
4.563371016000133
 10
-74.16352736399995
 20
4.56337498900001
 10
-74.16352146700001
 20
4.563379335000036
 10
-74.163441954
 20
4.563294309000071
 10
-74.16344343299994
 20
4.563293122999994
 10
-74.16344694499998
 20
4.563290411000139
 10
-74.16345063799992
 20
4.563287699999989
 10
-74.16345415099994
 20
4.563284988000134
 10
-74.16345784399999
 20
4.56328245800006
 10
-74.16346153699993
 20
4.563279836999925
 10
-74.16346522999999
 20
4.563277306000032
 10
-74.16346892399991
 20
4.563274685000067
 10
-74.16347279699988
 20
4.563272241999925
 10
-74.16347658000001
 20
4.56326980099999
 10
-74.16348036399995
 20
4.56326736200009
 10
-74.16348423699992
 20
4.563265010000066
 10
-74.16348811099999
 20
4.563262750000035
 10
-74.16349198399996
 20
4.563260491000108
 10
-74.16349585799992
 20
4.563258230000031
 10
-74.16349981999997
 20
4.563255972000036
 10
-74.16350378399994
 20
4.563253891000102
 10
-74.16350774699993
 20
4.563251723000121
 10
-74.16351171100001
 20
4.563249735000113
 10
-74.16351585399997
 20
4.563247655000112
 10
-74.16351981799994
 20
4.563245666000057
 10
-74.16352396100001
 20
4.563243768000063
 10
-74.163528015
 20
4.563241868000091
 10
-74.16353215800001
 20
4.563240061000045
 10
-74.163536212
 20
4.563238253000065
 10
-74.16354035699999
 20
4.563236536000034
 10
-74.16354458900003
 20
4.563234819000115
 10
-74.16354873300003
 20
4.56323310099998
 10
-74.16355296699993
 20
4.56323147300003
 10
-74.16355720000001
 20
4.563229937000074
 10
-74.16356143500002
 20
4.563228400000071
 10
-74.163565758
 20
4.563226864000114
 10
-74.16356999099992
 20
4.56322550799996
 10
-74.16357422499999
 20
4.563224061000142
 10
-74.16357854900002
 20
4.563222704000111
 10
-74.16358287399993
 20
4.563221440000007
 10
-74.16358719599992
 20
4.563220174999969
 10
-74.163591521
 20
4.563219000000004
 10
-74.16359593399994
 20
4.56321782200007
 10
-74.16360025799986
 20
4.56321673900004
 10
-74.16360467199996
 20
4.563215654000032
 10
-74.16360899599994
 20
4.563214659000039
 10
-74.16361340899999
 20
4.563213666000081
 10
-74.16361782399997
 20
4.563212761000102
 10
-74.16362223699997
 20
4.563211859000035
 10
-74.163626652
 20
4.563211045000116
 10
-74.163631065
 20
4.563210321000042
 10
-74.16363556999994
 20
4.563209506000078
 10
-74.16364007299995
 20
4.563208873000121
 10
-74.16364448699994
 20
4.563208239999994
 10
-74.1636489
 20
4.563207608000084
 10
-74.163653404
 20
4.563207154999986
 10
-74.163657909
 20
4.563206615000126
 10
-74.16366232199994
 20
4.563206163000075
 10
-74.16366682599994
 20
4.563205799999935
 10
-74.16367132999994
 20
4.563205438000125
 10
-74.163675834
 20
4.563205166000103
 10
-74.163680338
 20
4.563204896999991
 10
-74.16368484200001
 20
4.563204625000139
 10
-74.16368934699994
 20
4.563204534000022
 10
-74.16369384999996
 20
4.563204444000007
 10
-74.16369835399996
 20
4.563204352000014
  0
LWPOLYLINE
  5
C7
102
{ACAD_REACTORS
330
C5
102
}
330
1F
100
AcDbEntity
  8
6a
100
AcDbPolyline
 90
       35
 70
     1
 43
0.0
 10
-74.16327686099993
 20
4.563180938000016
 10
-74.16306985099993
 20
4.563032914000019
 10
-74.163170417
 20
4.562930583000025
 10
-74.163221072
 20
4.563121907000038
 10
-74.16332563399988
 20
4.563094399000079
 10
-74.16337640699999
 20
4.563292608999916
 10
-74.16337074799998
 20
4.563290409000103
 10
-74.16336627999993
 20
4.563288736999993
 10
-74.16336184099993
 20
4.563286989000005
 10
-74.16335743399992
 20
4.563285165000025
 10
-74.16335305799993
 20
4.563283262000141
 10
-74.16334871800001
 20
4.563281284000141
 10
-74.16334441100003
 20
4.563279229000102
 10
-74.16334014099999
 20
4.563277099000061
 10
-74.16333590800002
 20
4.563274895000063
 10
-74.16333171500003
 20
4.563272615999949
 10
-74.16332756199995
 20
4.563270265000028
 10
-74.16332345199987
 20
4.563267843000006
 10
-74.16331938299999
 20
4.563265348000073
 10
-74.16331535699999
 20
4.563262782000038
 10
-74.16331137700001
 20
4.563260146000005
 10
-74.16330744399988
 20
4.56325743900004
 10
-74.16330355899998
 20
4.563254666000091
 10
-74.16329972300002
 20
4.563251824000019
 10
-74.163295936
 20
4.563248917000067
 10
-74.16329220099993
 20
4.563245942000094
 10
-74.163288518
 20
4.563242903999992
 10
-74.16328488799996
 20
4.563239800000076
 10
-74.16328131300003
 20
4.563236635999999
 10
-74.16327779300002
 20
4.563233408000087
 10
-74.16327433099997
 20
4.563230117000103
 10
-74.16327092499995
 20
4.563226768000106
 10
-74.16326757799993
 20
4.563223361000098
 10
-74.16326429199995
 20
4.563219892999939
 10
-74.16326139999995
 20
4.563217264000002
  0
LWPOLYLINE
  5
C8
330
1F
100
AcDbEntity
  8
6a
100
AcDbPolyline
 90
        6
 70
     1
 43
0.0
 10
-74.15543419199992
 20
4.544870468000056
 10
-74.15559006699993
 20
4.54482576700002
 10
-74.155601671
 20
4.544921238000029
 10
-74.15560456499998
 20
4.544945044000031
 10
-74.15551462799999
 20
4.544950765000067
 10
-74.15551293200002
 20
4.544949072000009
  0
LWPOLYLINE
  5
C9
330
1F
100
AcDbEntity
  8
6a
100
AcDbPolyline
 90
       17
 70
     1
 43
0.0
 10
-74.1649049479999
 20
4.564678174999983
 10
-74.16491282499993
 20
4.564664100000016
 10
-74.1649264429999
 20
4.564643601
 10
-74.16493583199997
 20
4.564634409000121
 10
-74.164941951
 20
4.564628416999994
 10
-74.16496805099996
 20
4.564610954999978
 10
-74.16497487599997
 20
4.564607977000037
 10
-74.164985451
 20
4.56460336300006
 10
-74.16501722499993
 20
4.564597668000033
 10
-74.16503324000001
 20
4.56459914900006
 10
-74.16504597300002
 20
4.564600325000129
 10
-74.16506753499993
 20
4.564606776999938
 10
-74.16507719600003
 20
4.564611438000099
 10
-74.16508720399997
 20
4.564616265999973
 10
-74.16509249999996
 20
4.56462158000005
 10
-74.1650048699999
 20
4.564687051000021
 10
-74.16509931299998
 20
4.564809098000069
  0
LWPOLYLINE
  5
CA
330
1F
100
AcDbEntity
  8
6a
100
AcDbPolyline
 90
       66
 70
     1
 43
0.0
 10
-74.15763546599999
 20
4.553253099000074
 10
-74.15787572399995
 20
4.552827670000113
 10
-74.15798132399999
 20
4.552932338000062
 10
-74.15802593499996
 20
4.5529765550001
 10
-74.15822306500002
 20
4.553171947000124
 10
-74.15883549699998
 20
4.553778809999983
 10
-74.15900313200001
 20
4.553945123000119
 10
-74.15901427300003
 20
4.553956176000042
 10
-74.15901991599998
 20
4.553961775000062
 10
-74.15896941199986
 20
4.554115377000016
 10
-74.15892566899998
 20
4.554248414000085
 10
-74.158918186
 20
4.554271171000096
 10
-74.15891129300002
 20
4.554292135999958
 10
-74.15886873699998
 20
4.554421567000134
 10
-74.15884018700001
 20
4.554508402000124
 10
-74.15882934199999
 20
4.554541385000107
 10
-74.15880400899994
 20
4.554618431999984
 10
-74.158774559
 20
4.554708000000119
 10
-74.158762819
 20
4.554743705000135
 10
-74.15875667900002
 20
4.554742035000004
 10
-74.15873753900001
 20
4.554736830000024
 10
-74.15868895
 20
4.554723618000139
 10
-74.15865679699994
 20
4.554714875000059
 10
-74.15861547099996
 20
4.554703636999989
 10
-74.1585844
 20
4.554695188000096
 10
-74.15856481299994
 20
4.554689861000099
 10
-74.15853652700002
 20
4.554682170000092
 10
-74.15850866099993
 20
4.554674592000026
 10
-74.15846889099993
 20
4.55466377800002
 10
-74.15843151899992
 20
4.554653614000017
 10
-74.15840217499999
 20
4.554645634999986
 10
-74.15837603499995
 20
4.554638526000019
 10
-74.15837355999986
 20
4.554637853999964
 10
-74.158347348
 20
4.554622945999995
 10
-74.15832352399997
 20
4.554609396000103
 10
-74.15830010100001
 20
4.554596075000006
 10
-74.15825802499995
 20
4.554572146000055
 10
-74.15820654699996
 20
4.554542868000112
 10
-74.15817142399999
 20
4.554522894000058
 10
-74.15811739399999
 20
4.554492165000113
 10
-74.1580578
 20
4.554458273000137
 10
-74.15799474800002
 20
4.554422412999998
 10
-74.15794096500002
 20
4.554391824999982
 10
-74.15788795399999
 20
4.554361676999974
 10
-74.15787204999992
 20
4.554334538000091
 10
-74.1578470899999
 20
4.554291943999942
 10
-74.15781314999992
 20
4.554234026000131
 10
-74.15779451899999
 20
4.554202233000069
 10
-74.157770051
 20
4.554160479000018
 10
-74.15773292799997
 20
4.554097130000002
 10
-74.15770189899996
 20
4.554044178999959
 10
-74.15765860900001
 20
4.5539703070001
 10
-74.15762878899994
 20
4.553919420999932
 10
-74.15760431899997
 20
4.553877661999991
 10
-74.15760418399998
 20
4.55386072500005
 10
-74.15760397699995
 20
4.55383479599999
 10
-74.15760370800001
 20
4.553801029000113
 10
-74.15760337299997
 20
4.553759025000033
 10
-74.15760298100003
 20
4.553709851000008
 10
-74.15760247700001
 20
4.553646616000037
 10
-74.15760207199997
 20
4.553595814999994
 10
-74.15760170499993
 20
4.553549799000109
 10
-74.15760125899999
 20
4.553493833999994
 10
-74.15760077999994
 20
4.553433753000093
 10
-74.15760032600002
 20
4.553376830000104
 10
-74.15759984299996
 20
4.553316176999942
  0
LWPOLYLINE
  5
CB
330
1F
100
AcDbEntity
  8
6a
100
AcDbPolyline
 90
       25
 70
     1
 43
0.0
 10
-74.160529758
 20
4.548446792999925
 10
-74.16054753199995
 20
4.548395572000061
 10
-74.159987806
 20
4.548200184000052
 10
-74.15994907800001
 20
4.548308189000011
 10
-74.15994399399995
 20
4.54830635199994
 10
-74.15990255199989
 20
4.548291381999945
 10
-74.15993847499993
 20
4.548190361000024
 10
-74.15974163099997
 20
4.548119869000061
 10
-74.159737442
 20
4.548118369000122
 10
-74.15975476
 20
4.548071804000074
 10
-74.15976536900001
 20
4.548043280999934
 10
-74.15976612799994
 20
4.548041238999986
 10
-74.15976645
 20
4.548041053000134
 10
-74.159769719
 20
4.548039168999992
 10
-74.15979905900002
 20
4.548050074999992
 10
-74.15987988399996
 20
4.548080120000066
 10
-74.16059262999994
 20
4.548345061000077
 10
-74.16061504200002
 20
4.548279352000009
 10
-74.16069646499994
 20
4.548307319000116
 10
-74.16068608199998
 20
4.548338701000034
 10
-74.16066848700001
 20
4.548386662999917
 10
-74.16066083099992
 20
4.548407535000081
 10
-74.16065527399991
 20
4.548422683000069
 10
-74.16064934799994
 20
4.548420518
 10
-74.16062872100002
 20
4.5484773660001
  0
LWPOLYLINE
  5
CC
330
1F
100
AcDbEntity
  8
6a
100
AcDbPolyline
 90
       87
 70
     1
 43
0.0
 10
-74.15803058199998
 20
4.552790594999976
 10
-74.15809460799994
 20
4.552606356000126
 10
-74.15806232499995
 20
4.552515608000078
 10
-74.15808785500002
 20
4.552482883000096
 10
-74.158177824
 20
4.552367556000092
 10
-74.15821973300001
 20
4.552231411000093
 10
-74.15832319600003
 20
4.551784217000034
 10
-74.158282192
 20
4.551697087000093
 10
-74.15828532500001
 20
4.551692137000032
 10
-74.158379535
 20
4.55154329800007
 10
-74.15839296500002
 20
4.551404467000054
 10
-74.15841895799997
 20
4.551135779999925
 10
-74.15844100300001
 20
4.550907898000105
 10
-74.15839397600001
 20
4.550827373999994
 10
-74.15848239999997
 20
4.550551945000052
 10
-74.15849803100002
 20
4.55037554800009
 10
-74.158503102
 20
4.550315812000122
 10
-74.15846109699999
 20
4.550297940000064
 10
-74.15849514299998
 20
4.55021735300005
 10
-74.15856497799996
 20
4.550247065000065
 10
-74.15858136399999
 20
4.549775137999973
 10
-74.158606319
 20
4.549783945000115
 10
-74.15862009
 20
4.549788806000038
 10
-74.15860585799999
 20
4.550284288
 10
-74.15859667500001
 20
4.550332284999968
 10
-74.15857765999993
 20
4.550422524999988
 10
-74.15857352999996
 20
4.550442125000018
 10
-74.15856402999998
 20
4.550551837000057
 10
-74.1585662199999
 20
4.550552763000098
 10
-74.158590296
 20
4.550562943000045
 10
-74.15864078999994
 20
4.550580948000061
 10
-74.15865088699996
 20
4.550585136000052
 10
-74.15863977899994
 20
4.550615578000077
 10
-74.15863144099995
 20
4.550638427000081
 10
-74.158623519
 20
4.55063559600012
 10
-74.158557514
 20
4.550618803999953
 10
-74.15853936899998
 20
4.550831291999998
 10
-74.15855450499998
 20
4.550843736000104
 10
-74.158603916
 20
4.550861462
 10
-74.15857867900002
 20
4.550933058000055
 10
-74.158531025
 20
4.550918960000104
 10
-74.15850881799986
 20
4.55113641600002
 10
-74.15853779199995
 20
4.551146028999995
 10
-74.158526607
 20
4.551177636000034
 10
-74.15851978799998
 20
4.551196905000097
 10
-74.15850687999995
 20
4.551192460000038
 10
-74.158483569
 20
4.551417768000022
 10
-74.15851304199992
 20
4.551424478000001
 10
-74.15850703199999
 20
4.551441656000009
 10
-74.15850401699998
 20
4.551450273000114
 10
-74.15849659899999
 20
4.55144774900009
 10
-74.15848391200001
 20
4.551487230999953
 10
-74.15846054999986
 20
4.551578074000133
 10
-74.15842873899999
 20
4.551701774000037
 10
-74.15842404099993
 20
4.55171577599998
 10
-74.15842685399991
 20
4.551716758000055
 10
-74.15843260399993
 20
4.551718764000043
 10
-74.15842648499995
 20
4.551736945000016
 10
-74.158420638
 20
4.551754319000054
 10
-74.15840183999995
 20
4.551823023000054
 10
-74.158393762
 20
4.551852544000099
 10
-74.15837556100001
 20
4.55193299199999
 10
-74.15836785699992
 20
4.55196704399998
 10
-74.158450818
 20
4.551995053999974
 10
-74.15842793000002
 20
4.552060169000129
 10
-74.15835604699998
 20
4.552034482999943
 10
-74.15830031799999
 20
4.552250067999921
 10
-74.15835855400002
 20
4.552270710000073
 10
-74.15834224999992
 20
4.552319213000089
 10
-74.15828846900001
 20
4.552299711999979
 10
-74.15823211999998
 20
4.552511020000054
 10
-74.15828284700001
 20
4.552529527000047
 10
-74.15835202499994
 20
4.552552048000052
 10
-74.15835224800003
 20
4.552632313999936
 10
-74.15828335899994
 20
4.552606603000072
 10
-74.15827209999998
 20
4.552623384000128
 10
-74.15825366399997
 20
4.552641492000021
 10
-74.158243099
 20
4.552651867999998
 10
-74.15822331700002
 20
4.55263069199998
 10
-74.15812651099992
 20
4.552837010000019
 10
-74.15811486400003
 20
4.552848860000097
 10
-74.15810121999999
 20
4.552862742000002
 10
-74.15807860099994
 20
4.55288575700007
 10
-74.15802593499996
 20
4.5529765550001
 10
-74.15802420199998
 20
4.55297954200006
 10
-74.15798092499995
 20
4.552933485000096
 10
-74.15798132399999
 20
4.552932338000062
  0
LWPOLYLINE
  5
CE
102
{ACAD_REACTORS
330
CD
102
}
330
1F
100
AcDbEntity
  8
6a
100
AcDbPolyline
 90
       41
 70
     1
 43
0.0
 10
-74.14805009399993
 20
4.533623935000094
 10
-74.14807437899998
 20
4.533142036000072
 10
-74.14782753399999
 20
4.53309609900009
 10
-74.14759458700001
 20
4.533015804000115
 10
-74.14751874299992
 20
4.533070141000053
 10
-74.147459749
 20
4.533079800000053
 10
-74.14735922499989
 20
4.533022445000029
 10
-74.147234992
 20
4.533070744999975
 10
-74.147075191
 20
4.533097532000113
 10
-74.14693462600002
 20
4.5331142120001
 10
-74.14690211499999
 20
4.533127492000119
 10
-74.146882742
 20
4.53319392100002
 10
-74.14682912
 20
4.53312129800014
 10
-74.146723947
 20
4.532962296000107
 10
-74.14665476999994
 20
4.532777152000108
 10
-74.14682357799995
 20
4.532797801000129
 10
-74.14713300099999
 20
4.532835652000131
 10
-74.147329308
 20
4.532859667000082
 10
-74.14729970299993
 20
4.532695792000084
 10
-74.14752913000001
 20
4.532674082000085
 10
-74.14752727199993
 20
4.532656097000086
 10
-74.14761161999996
 20
4.532686623000131
 10
-74.14772361500002
 20
4.532749711000008
 10
-74.14811942799997
 20
4.533027743000105
 10
-74.14833611899996
 20
4.533066368999926
 10
-74.14842083999997
 20
4.533077536999997
 10
-74.148459704
 20
4.533092602000067
 10
-74.14856801899998
 20
4.533115370000019
 10
-74.14863010499988
 20
4.53314819600007
 10
-74.14869374299997
 20
4.533188699000107
 10
-74.14877166299993
 20
4.533335075000139
 10
-74.14860707899993
 20
4.533296766000092
 10
-74.14840928399997
 20
4.533250727000109
 10
-74.14847988699995
 20
4.533584677000022
 10
-74.14828253299999
 20
4.533632967000131
 10
-74.14833261099994
 20
4.533802692000052
 10
-74.14833632799997
 20
4.533864775000097
 10
-74.14805540700002
 20
4.533934929000054
 10
-74.14801287099988
 20
4.533740182000031
 10
-74.14805143499996
 20
4.533725610000033
 10
-74.14803264099999
 20
4.533646156000032
  0
LWPOLYLINE
  5
CF
102
{ACAD_REACTORS
330
CD
102
}
330
1F
100
AcDbEntity
  8
6a
100
AcDbPolyline
 90
       46
 70
     1
 43
0.0
 10
-74.14480676099998
 20
4.531676367999978
 10
-74.14474249300002
 20
4.531552690000012
 10
-74.14473313000002
 20
4.531534672000134
 10
-74.144799256
 20
4.531473081000115
 10
-74.14497639799998
 20
4.531397276000121
 10
-74.14500414499997
 20
4.531355826000095
 10
-74.145059054
 20
4.531353452999952
 10
-74.14511337699997
 20
4.531339243000048
 10
-74.14516898400001
 20
4.531308320999983
 10
-74.14527585799999
 20
4.531280485000138
 10
-74.14554813900003
 20
4.53123541299999
 10
-74.14558981900001
 20
4.531225161000009
 10
-74.145750469
 20
4.531170926999948
 10
-74.14576088299998
 20
4.531172920000017
 10
-74.1457964
 20
4.531179716999986
 10
-74.14586505699998
 20
4.531210275000035
 10
-74.14586741300002
 20
4.531210855000097
 10
-74.14601087199998
 20
4.531246150999948
 10
-74.14611386799987
 20
4.531251517000044
 10
-74.1460852319999
 20
4.531254301000104
 10
-74.14600530899986
 20
4.531262071000072
 10
-74.14570309800001
 20
4.531291450000083
 10
-74.145593884
 20
4.531311775999995
 10
-74.14553845599994
 20
4.531309703999966
 10
-74.14543131899995
 20
4.531324639000047
 10
-74.14539329199994
 20
4.53132763800005
 10
-74.14529356600002
 20
4.531338333000122
 10
-74.14523467699996
 20
4.531350754000016
 10
-74.14511328700002
 20
4.531379354999956
 10
-74.14506305399999
 20
4.531391461999988
 10
-74.14503370900002
 20
4.531409019000137
 10
-74.14497259099994
 20
4.53144558200006
 10
-74.14488247799994
 20
4.531499494999991
 10
-74.14500503099998
 20
4.531628378999983
 10
-74.14503263900002
 20
4.531610193000063
 10
-74.14506162800001
 20
4.531591095000067
 10
-74.145095449
 20
4.53156881700005
 10
-74.14514016200002
 20
4.53153936199999
 10
-74.145153413
 20
4.531597990000023
 10
-74.14515314299996
 20
4.531603142000108
 10
-74.14511550899994
 20
4.531671107000136
 10
-74.14497636300001
 20
4.531811771000037
 10
-74.14494580099995
 20
4.531836290000058
 10
-74.14493156600003
 20
4.531859351000094
 10
-74.14491543100002
 20
4.531885491000139
 10
-74.14483867899997
 20
4.531737790999955
  0
LWPOLYLINE
  5
D0
102
{ACAD_REACTORS
330
CD
102
}
330
1F
100
AcDbEntity
  8
6a
100
AcDbPolyline
 90
       38
 70
     1
 43
0.0
 10
-74.14578161899999
 20
4.532613081000079
 10
-74.14575322999997
 20
4.532605475000025
 10
-74.14567449100002
 20
4.532609422000064
 10
-74.14557070099994
 20
4.532576037000069
 10
-74.14551415099999
 20
4.532542653000121
 10
-74.1453252309999
 20
4.532506922000096
 10
-74.14514329199994
 20
4.532555812999988
 10
-74.145052352
 20
4.532539415000031
 10
-74.14496296099986
 20
4.53252967800006
 10
-74.14495026699996
 20
4.532522695000068
 10
-74.14483524600001
 20
4.532459420999999
 10
-74.144826491
 20
4.532454605000112
 10
-74.14484373800002
 20
4.53235020000011
 10
-74.1449121
 20
4.532262603000049
 10
-74.144915346
 20
4.532102592999934
 10
-74.14492103600003
 20
4.532102944000087
 10
-74.14493164200002
 20
4.532103599000038
 10
-74.14496541799997
 20
4.53210568399993
 10
-74.14515233999998
 20
4.532117221000078
 10
-74.14514691699998
 20
4.532222346000026
 10
-74.14513316799997
 20
4.532347822000077
 10
-74.144951725
 20
4.532350348000136
 10
-74.14498297199998
 20
4.532480268000029
 10
-74.14512373399992
 20
4.532480346999932
 10
-74.14517523900003
 20
4.532487054000057
 10
-74.14519371099993
 20
4.532489460000079
 10
-74.14522856999997
 20
4.532493998999996
 10
-74.14531576399992
 20
4.532488437000097
 10
-74.14538948399996
 20
4.532492008000133
 10
-74.14549986799994
 20
4.53251374600012
 10
-74.14554844899999
 20
4.532530633000022
 10
-74.14561657199994
 20
4.532560040000078
 10
-74.14571618100001
 20
4.532583231000103
 10
-74.14571859599994
 20
4.532589974000075
 10
-74.14582385800003
 20
4.532578383000043
 10
-74.145906013
 20
4.532595764000007
 10
-74.14591021199999
 20
4.53261718300007
 10
-74.14591905100002
 20
4.532662259000062
  0
LWPOLYLINE
  5
D1
102
{ACAD_REACTORS
330
CD
102
}
330
1F
100
AcDbEntity
  8
6a
100
AcDbPolyline
 90
        4
 70
     1
 43
0.0
 10
-74.14664757199989
 20
4.532730839000067
 10
-74.14664313799994
 20
4.53267506200001
 10
-74.14671648199999
 20
4.532682738000062
 10
-74.146731794
 20
4.532725991000007
  0
LWPOLYLINE
  5
D2
102
{ACAD_REACTORS
330
CD
102
}
330
1F
100
AcDbEntity
  8
6a
100
AcDbPolyline
 90
        8
 70
     1
 43
0.0
 10
-74.14681741099997
 20
4.53275027799998
 10
-74.14680198599996
 20
4.532710703000021
 10
-74.14687043299995
 20
4.532692936000046
 10
-74.14695582999997
 20
4.532715819999964
 10
-74.14700301599999
 20
4.53272846599998
 10
-74.14695467399997
 20
4.532627643999945
 10
-74.147142788
 20
4.532620446000067
 10
-74.147167497
 20
4.532770817000028
  0
LWPOLYLINE
  5
D3
102
{ACAD_REACTORS
330
CD
102
}
330
1F
100
AcDbEntity
  8
6a
100
AcDbPolyline
 90
        4
 70
     1
 43
0.0
 10
-74.14786601099996
 20
4.532667150000066
 10
-74.14789409299999
 20
4.532663558000081
 10
-74.14801590299993
 20
4.53290789600004
 10
-74.14770883800003
 20
4.532687247000013
  0
LWPOLYLINE
  5
D4
330
1F
100
AcDbEntity
  8
6a
100
AcDbPolyline
 90
       64
 70
     1
 43
0.0
 10
-74.17357083599995
 20
4.57513063600004
 10
-74.17335479000002
 20
4.575098898999954
 10
-74.173276101
 20
4.575110789000064
 10
-74.17273255699996
 20
4.575040300000012
 10
-74.17268832999997
 20
4.574998520000122
 10
-74.17244305899999
 20
4.574958039000023
 10
-74.17243125700003
 20
4.575033810000036
 10
-74.17242480200002
 20
4.575034082000059
 10
-74.17237202399991
 20
4.575092452000092
 10
-74.17232711100002
 20
4.575083506000055
 10
-74.17193254399996
 20
4.575004915000022
 10
-74.17180667100001
 20
4.57497931600011
 10
-74.17177312400003
 20
4.574972494000065
 10
-74.17173663800003
 20
4.574940258000083
 10
-74.17160185300003
 20
4.574821173000089
 10
-74.17143057800001
 20
4.574611484999991
 10
-74.17137240899996
 20
4.574512043000084
 10
-74.17128137599991
 20
4.574422760000061
 10
-74.17122914399994
 20
4.574371530999997
 10
-74.17114512500001
 20
4.574329377000083
 10
-74.17089091600002
 20
4.574281825999947
 10
-74.17073580399989
 20
4.574194279000096
 10
-74.170447126
 20
4.574125110000125
 10
-74.17015952399998
 20
4.57401594800001
 10
-74.16995701799993
 20
4.573956506000059
 10
-74.16993977800001
 20
4.573945739000123
 10
-74.16966065100002
 20
4.573771413000088
 10
-74.16955178399996
 20
4.573703421000005
 10
-74.16933225999992
 20
4.573566319000008
 10
-74.169269784
 20
4.573502547000032
 10
-74.169026347
 20
4.57345175200004
 10
-74.16880229799995
 20
4.573368531000142
 10
-74.16865795799998
 20
4.573299356000007
 10
-74.16842852399992
 20
4.573224780999965
 10
-74.16843713999992
 20
4.573205324000071
 10
-74.16869350399992
 20
4.573293950000107
 10
-74.16873551399993
 20
4.573323135000123
 10
-74.16895310000001
 20
4.573398790000113
 10
-74.16908666199993
 20
4.573423358000014
 10
-74.16927624499999
 20
4.573458230000028
 10
-74.16929762500001
 20
4.57347674500005
 10
-74.16935487900002
 20
4.573526325999978
 10
-74.16946820199996
 20
4.573549542000137
 10
-74.16956061600001
 20
4.573568474000069
 10
-74.16961396499988
 20
4.573575493000078
 10
-74.16969128699998
 20
4.573590481000053
 10
-74.16994665299995
 20
4.573642829000107
 10
-74.17017605500001
 20
4.573684676000141
 10
-74.1711234579999
 20
4.573875982000118
 10
-74.17265479299994
 20
4.574127057000055
 10
-74.17277992300001
 20
4.574162926999975
 10
-74.172887178
 20
4.574246634000076
 10
-74.17306593299986
 20
4.574294461000022
 10
-74.17342642400001
 20
4.574366198000007
 10
-74.17376605899995
 20
4.574422989000027
 10
-74.17409973500003
 20
4.574464831000114
 10
-74.17411760800002
 20
4.574393079000004
 10
-74.17516034599987
 20
4.574557468000023
 10
-74.17506030499993
 20
4.575073039000131
 10
-74.17446532100001
 20
4.574943297000061
 10
-74.174277389
 20
4.575056156000073
 10
-74.17386830999999
 20
4.575013721000062
 10
-74.17385391399995
 20
4.575108026000123
 10
-74.17363846299997
 20
4.575071434000108
  0
LWPOLYLINE
  5
D5
330
1F
100
AcDbEntity
  8
6a
100
AcDbPolyline
 90
       61
 70
     1
 43
0.0
 10
-74.15845838699994
 20
4.549731020000081
 10
-74.15850233600003
 20
4.549607649999984
 10
-74.15852872199997
 20
4.549617226999999
 10
-74.15857284999998
 20
4.549494778999986
 10
-74.15866791699995
 20
4.54923034900014
 10
-74.15885068099999
 20
4.548964291000118
 10
-74.158935783
 20
4.548753841000121
 10
-74.15897121
 20
4.54875358999999
 10
-74.15923966700001
 20
4.548220780000008
 10
-74.15932185499997
 20
4.548040587999992
 10
-74.15937800500001
 20
4.548012985000128
 10
-74.15938565599993
 20
4.548017198000025
 10
-74.15939120299993
 20
4.548020252000072
 10
-74.15932882499993
 20
4.548156511000059
 10
-74.15930740800002
 20
4.548203295000064
 10
-74.15931011699996
 20
4.548204370000065
 10
-74.15935818999998
 20
4.54822344400003
 10
-74.15934765899999
 20
4.548249317000113
 10
-74.15931356800002
 20
4.548235343000044
 10
-74.15920251899996
 20
4.548443895000048
 10
-74.15928732599997
 20
4.548478866999915
 10
-74.15927089699994
 20
4.548526644000049
 10
-74.159259835
 20
4.548558811000134
 10
-74.15922846899997
 20
4.548546827000052
 10
-74.15918392899994
 20
4.548650718000033
 10
-74.15914583
 20
4.548739585000021
 10
-74.15919293399998
 20
4.548760119999997
 10
-74.15915906499993
 20
4.548831142999973
 10
-74.159112526
 20
4.548810867000043
 10
-74.15911233899988
 20
4.548810785000057
 10
-74.15902845699986
 20
4.548989533999986
 10
-74.15903097199998
 20
4.548990492999962
 10
-74.15907847800003
 20
4.549008614000002
 10
-74.159057152
 20
4.549052186999916
 10
-74.15901788599996
 20
4.549035358000083
 10
-74.15896424699997
 20
4.549012370000128
 10
-74.15887943099995
 20
4.549198070000045
 10
-74.15887468099993
 20
4.549211368000044
 10
-74.15882991799987
 20
4.549195283000074
 10
-74.15881605499987
 20
4.549190302000113
 10
-74.15881264199993
 20
4.549199864000002
 10
-74.15880494800001
 20
4.549221419000105
 10
-74.15880293499993
 20
4.549227056999996
 10
-74.15880029099998
 20
4.549225876000037
 10
-74.15878812499994
 20
4.549220440000113
 10
-74.15872776999993
 20
4.54931269299999
 10
-74.15871023400001
 20
4.549359854999977
 10
-74.15868592200002
 20
4.549425240000005
 10
-74.15873492499998
 20
4.549442211000041
 10
-74.158718916
 20
4.549493036999991
 10
-74.15867231699997
 20
4.549476366000135
 10
-74.15864578399999
 20
4.549592175000043
 10
-74.15862383599995
 20
4.54968797600003
 10
-74.15863448699997
 20
4.549692468000046
 10
-74.15863333999994
 20
4.549697772000002
 10
-74.15862749000001
 20
4.549729107000019
 10
-74.15862287999988
 20
4.549753800000019
 10
-74.15862026000002
 20
4.54978287900002
 10
-74.15862009
 20
4.549788806000038
 10
-74.158606319
 20
4.549783945000115
 10
-74.15858136399999
 20
4.549775137999973
  0
LWPOLYLINE
  5
D6
330
1F
100
AcDbEntity
  8
6a
100
AcDbPolyline
 90
        4
 70
     1
 43
0.0
 10
-74.110678716
 20
4.733066807999933
 10
-74.11074330500003
 20
4.732952306000072
 10
-74.11122184599992
 20
4.733147227000131
 10
-74.11112987500002
 20
4.733322549000093
  0
LWPOLYLINE
  5
D8
102
{ACAD_REACTORS
330
D7
102
}
330
1F
100
AcDbEntity
  8
6a
100
AcDbPolyline
 90
      143
 70
     1
 43
0.0
 10
-74.16227685199988
 20
4.553050362000079
 10
-74.16231002199993
 20
4.552947102999951
 10
-74.16231086300002
 20
4.552947394000114
 10
-74.16236263799993
 20
4.552962980000132
 10
-74.16239482399993
 20
4.552859429000023
 10
-74.16244344299997
 20
4.552874070000087
 10
-74.16245878900003
 20
4.552823257000057
 10
-74.16249011399992
 20
4.552719410999941
 10
-74.16254192599996
 20
4.552734704000102
 10
-74.16259380899999
 20
4.552750069000012
 10
-74.16264562100002
 20
4.552765363999924
 10
-74.16267694499993
 20
4.552661590000071
 10
-74.16269143299996
 20
4.552605670999981
 10
-74.16272570999996
 20
4.552502826000079
 10
-74.16276167299992
 20
4.552400481000063
 10
-74.16281873799994
 20
4.552417006000098
 10
-74.16283502299996
 20
4.552364280000006
 10
-74.16286704100003
 20
4.552260677000049
 10
-74.16291890599996
 20
4.552275861000055
 10
-74.16294747699993
 20
4.552171271000077
 10
-74.16298256199991
 20
4.552181555000061
 10
-74.1629995909999
 20
4.552131873000008
 10
-74.16303446400002
 20
4.552030149000132
 10
-74.16303530699992
 20
4.552030364000075
 10
-74.16308723499998
 20
4.552045396999972
 10
-74.16313916399997
 20
4.552060358999995
 10
-74.16319024900002
 20
4.552075104000039
 10
-74.16324309199996
 20
4.552090350999947
 10
-74.16327726600002
 20
4.551987422999957
 10
-74.16334547500003
 20
4.552007047000018
 10
-74.16337525399996
 20
4.551931730000092
 10
-74.1634150829999
 20
4.551830881000001
 10
-74.16343464599993
 20
4.551780317000066
 10
-74.16345427899995
 20
4.551729752000085
 10
-74.16356862399999
 20
4.551755774000071
 10
-74.163576337
 20
4.551729027000079
 10
-74.16360637399993
 20
4.551624816000071
 10
-74.16365851999996
 20
4.551639082000008
 10
-74.16370975199993
 20
4.551653063000003
 10
-74.16376365799988
 20
4.551667750999968
 10
-74.16381580500001
 20
4.551681946000031
 10
-74.163846697
 20
4.55157799199992
 10
-74.16393829299994
 20
4.55160294600006
 10
-74.16395946400002
 20
4.551520777000064
 10
-74.163986529
 20
4.551415783000095
 10
-74.16393400999993
 20
4.551402875000122
 10
-74.163980933
 20
4.551248216000033
 10
-74.16378594100001
 20
4.551202795999984
 10
-74.16382446799992
 20
4.551101395000046
 10
-74.163867031
 20
4.551002714000106
 10
-74.16396975899988
 20
4.551029876000086
 10
-74.163934875
 20
4.551123236000137
 10
-74.16450537599997
 20
4.551335785000049
 10
-74.16455503499998
 20
4.551326364999966
 10
-74.16460695400002
 20
4.551304349000134
 10
-74.16465407700002
 20
4.551261124000007
 10
-74.16467636699997
 20
4.55122564800007
 10
-74.16469438699988
 20
4.551171925000006
 10
-74.16473204399989
 20
4.551132049000103
 10
-74.16474765100003
 20
4.551085346000036
 10
-74.16483112999998
 20
4.551119209999968
 10
-74.164931712
 20
4.550927208000076
 10
-74.16495109099998
 20
4.550885211999969
 10
-74.16496378399995
 20
4.550890350000088
 10
-74.16507631099995
 20
4.550936605000061
 10
-74.16510741399986
 20
4.550880462000123
 10
-74.16514611999997
 20
4.550826154000106
 10
-74.16518989000002
 20
4.550788372
 10
-74.16522427699994
 20
4.550762257000031
 10
-74.16509073399999
 20
4.550707936000094
 10
-74.16511421199999
 20
4.550663529000019
 10
-74.16504275099993
 20
4.550635535000026
 10
-74.16507107899997
 20
4.550530853999987
 10
-74.16509686899997
 20
4.55043204600014
 10
-74.16511455800003
 20
4.550364238000043
 10
-74.16496326200001
 20
4.550304970000127
 10
-74.16499063599997
 20
4.550200027000074
 10
-74.16501843199995
 20
4.550095224000017
 10
-74.16496002399992
 20
4.54995740999999
 10
-74.16499565700002
 20
4.549855047000108
 10
-74.16503637400001
 20
4.549754544000052
 10
-74.16501526399998
 20
4.549699879000059
 10
-74.16503067499991
 20
4.549647899000036
 10
-74.16504580399999
 20
4.549596771999973
 10
-74.16506121600003
 20
4.549544792999995
 10
-74.16507662599997
 20
4.549492816999987
 10
-74.16509203800001
 20
4.549440839000113
 10
-74.16510744799996
 20
4.549388791000069
 10
-74.16512799599997
 20
4.549319512000125
 10
-74.16526174900002
 20
4.549324555999988
 10
-74.16517755999996
 20
4.549392605000037
 10
-74.16520683599998
 20
4.549438188000011
 10
-74.16523618500003
 20
4.549483765000105
 10
-74.16526545899995
 20
4.549529276999976
 10
-74.16517946799996
 20
4.549599396000019
 10
-74.16512932500001
 20
4.549640305000082
 10
-74.16520828599994
 20
4.549759016000053
 10
-74.16520941499994
 20
4.549956049000116
 10
-74.16526881199997
 20
4.550046656000063
 10
-74.16512658900001
 20
4.550145596000107
 10
-74.16517739999995
 20
4.550239309000119
 10
-74.165230603
 20
4.550337543000069
 10
-74.165256995
 20
4.550384292000103
 10
-74.16528042899995
 20
4.550429206000103
 10
-74.16528141499998
 20
4.550431043000003
 10
-74.16530710199993
 20
4.550478360000056
 10
-74.16533102999989
 20
4.550522495999985
 10
-74.16538830399992
 20
4.550495700999988
 10
-74.16548626699995
 20
4.550449816000025
 10
-74.16558423199996
 20
4.550403933000041
 10
-74.16563855599992
 20
4.550386899000046
 10
-74.16556585599994
 20
4.550258844000041
 10
-74.16565699599994
 20
4.5502040020001
 10
-74.16565131800002
 20
4.550193727000078
 10
-74.165738965
 20
4.550130208999974
 10
-74.16578535100001
 20
4.550214016999973
 10
-74.165826519
 20
4.550165571000036
 10
-74.16570892199996
 20
4.54994763600007
 10
-74.165798295
 20
4.54988661800013
 10
-74.165823982
 20
4.549934287000099
 10
-74.16584980900001
 20
4.549982238999974
 10
-74.16597148300002
 20
4.549899187000051
 10
-74.16608021299999
 20
4.550108645000137
 10
-74.16586867399997
 20
4.550243676000036
 10
-74.16563468799995
 20
4.550478496000096
 10
-74.165390285
 20
4.550631745999965
 10
-74.16529741599993
 20
4.550758649000102
 10
-74.16506349799994
 20
4.550962111999979
 10
-74.164689189
 20
4.551322142999993
 10
-74.16457150600002
 20
4.551361129999918
 10
-74.16435581399992
 20
4.55143323700014
 10
-74.16388284199996
 20
4.551818058000094
 10
-74.16377868999996
 20
4.551902804000008
 10
-74.163497974
 20
4.552059303999954
 10
-74.16347679199993
 20
4.552074275000052
 10
-74.16325758200003
 20
4.55222957299992
 10
-74.16323281199999
 20
4.552247158000057
 10
-74.16318601199987
 20
4.552262838000104
 10
-74.16291648599997
 20
4.55248084700014
 10
-74.16269980999988
 20
4.552725762000023
 10
-74.16275406900002
 20
4.552805915000022
 10
-74.16266694799998
 20
4.552886778000072
 10
-74.16251494199986
 20
4.552887628000121
  0
LWPOLYLINE
  5
D9
102
{ACAD_REACTORS
330
D7
102
}
330
1F
100
AcDbEntity
  8
6a
100
AcDbPolyline
 90
        7
 70
     1
 43
0.0
 10
-74.16027758799999
 20
4.554472545000067
 10
-74.16035757499998
 20
4.554246849000037
 10
-74.16050184599999
 20
4.554298363000044
 10
-74.16042276799993
 20
4.554376246000004
 10
-74.16037880499994
 20
4.554609739000057
 10
-74.16027337100002
 20
4.55470001600014
 10
-74.16020665999991
 20
4.55467268000001
  0
LWPOLYLINE
  5
DA
102
{ACAD_REACTORS
330
D7
102
}
330
1F
100
AcDbEntity
  8
6a
100
AcDbPolyline
 90
       15
 70
     1
 43
0.0
 10
-74.16156821399994
 20
4.553428534000091
 10
-74.16160185199999
 20
4.553325498000106
 10
-74.16160529899997
 20
4.553326488000039
 10
-74.16163883600001
 20
4.553339704999928
 10
-74.16170473399995
 20
4.553242570000009
 10
-74.16179120700002
 20
4.553267885000025
 10
-74.161819218
 20
4.553215444000045
 10
-74.16185355900001
 20
4.553113537999991
 10
-74.16190556499998
 20
4.553128509000089
 10
-74.16193955499995
 20
4.553024556000082
 10
-74.16206249699997
 20
4.553059933999975
 10
-74.161893115
 20
4.553236330000004
 10
-74.16186629700002
 20
4.553273226999977
 10
-74.16182833199997
 20
4.553300037999975
 10
-74.16160350299992
 20
4.553435837999984
  0
LWPOLYLINE
  5
DB
102
{ACAD_REACTORS
330
D7
102
}
330
1F
100
AcDbEntity
  8
6a
100
AcDbPolyline
 90
        6
 70
     1
 43
0.0
 10
-74.15964061
 20
4.554898031000107
 10
-74.15966409199996
 20
4.554878301000088
 10
-74.159875151
 20
4.554962675000127
 10
-74.15970332299992
 20
4.555147960000113
 10
-74.15956505600002
 20
4.55508191600012
 10
-74.15960619299995
 20
4.554981626000028
  0
LWPOLYLINE
  5
DC
102
{ACAD_REACTORS
330
D7
102
}
330
1F
100
AcDbEntity
  8
6a
100
AcDbPolyline
 90
        4
 70
     1
 43
0.0
 10
-74.159146196
 20
4.555489755999929
 10
-74.15924105800002
 20
4.555315182000072
 10
-74.15945012600002
 20
4.555410625000036
 10
-74.15928618599997
 20
4.555552037000041
  0
LWPOLYLINE
  5
DD
102
{ACAD_REACTORS
330
D7
102
}
330
1F
100
AcDbEntity
  8
6a
100
AcDbPolyline
 90
        4
 70
     1
 43
0.0
 10
-74.15994608900002
 20
4.554890104000094
 10
-74.16013046500001
 20
4.554717433999997
 10
-74.160223728
 20
4.554751001
 10
-74.16000559099996
 20
4.554911049000111
  0
LWPOLYLINE
  5
DE
102
{ACAD_REACTORS
330
D7
102
}
330
1F
100
AcDbEntity
  8
6a
100
AcDbPolyline
 90
        9
 70
     1
 43
0.0
 10
-74.15860017999995
 20
4.555200557000092
 10
-74.15861163699992
 20
4.555175992000102
 10
-74.158733735
 20
4.55523185100003
 10
-74.15878292599996
 20
4.555254311000112
 10
-74.15883211699997
 20
4.555276837000008
 10
-74.15888130899992
 20
4.555299295000111
 10
-74.1589305
 20
4.555321752000054
 10
-74.15897962100001
 20
4.555344278000007
 10
-74.158949431
 20
4.555399786000123
  0
LWPOLYLINE
  5
DF
102
{ACAD_REACTORS
330
D7
102
}
330
1F
100
AcDbEntity
  8
6a
100
AcDbPolyline
 90
        9
 70
     1
 43
0.0
 10
-74.16127872599998
 20
4.55362543800004
 10
-74.16131301599995
 20
4.553522570999974
 10
-74.161365208
 20
4.553536807000114
 10
-74.161417331
 20
4.553551043000027
 10
-74.16145126100002
 20
4.553446129999941
 10
-74.16156221199998
 20
4.553483694000079
 10
-74.16144157799994
 20
4.5535628290001
 10
-74.161340214
 20
4.553619869999977
 10
-74.16131345100001
 20
4.553634929000054
  0
LWPOLYLINE
  5
E0
102
{ACAD_REACTORS
330
D7
102
}
330
1F
100
AcDbEntity
  8
6a
100
AcDbPolyline
 90
        4
 70
     1
 43
0.0
 10
-74.15950166499994
 20
4.555352691000053
 10
-74.15956777499997
 20
4.555150914000137
 10
-74.15967811699988
 20
4.555202208000139
 10
-74.159527276
 20
4.555363855999985
  0
LWPOLYLINE
  5
E1
102
{ACAD_REACTORS
330
D7
102
}
330
1F
100
AcDbEntity
  8
6a
100
AcDbPolyline
 90
        5
 70
     1
 43
0.0
 10
-74.16062634100001
 20
4.554195326000126
 10
-74.16066138699995
 20
4.554092713000102
 10
-74.16071276000002
 20
4.554109379000067
 10
-74.16069812299997
 20
4.554157824999947
 10
-74.16063922000001
 20
4.55419949100002
  0
LWPOLYLINE
  5
E2
102
{ACAD_REACTORS
330
D7
102
}
330
1F
100
AcDbEntity
  8
6a
100
AcDbPolyline
 90
        3
 70
     1
 43
0.0
 10
-74.16078735100001
 20
4.554052816999956
 10
-74.16083274099992
 20
4.553915883000002
 10
-74.16088150999997
 20
4.553928877000033
  0
LWPOLYLINE
  5
E3
102
{ACAD_REACTORS
330
D7
102
}
330
1F
100
AcDbEntity
  8
6a
100
AcDbPolyline
 90
        3
 70
     1
 43
0.0
 10
-74.16099164299993
 20
4.553803384000048
 10
-74.16101563999996
 20
4.553725701000076
 10
-74.16107778099996
 20
4.553747239000074
  0
LWPOLYLINE
  5
E4
102
{ACAD_REACTORS
330
D7
102
}
330
1F
100
AcDbEntity
  8
6a
100
AcDbPolyline
 90
        3
 70
     1
 43
0.0
 10
-74.16115216399999
 20
4.553719764999983
 10
-74.16117454199997
 20
4.553658042999984
 10
-74.16123337399995
 20
4.553679794000118
  0
LWPOLYLINE
  5
E6
102
{ACAD_REACTORS
330
E5
102
}
330
1F
100
AcDbEntity
  8
6a
100
AcDbPolyline
 90
        7
 70
     1
 43
0.0
 10
-74.15419321600001
 20
4.538622868000061
 10
-74.15419483699998
 20
4.538605693000136
 10
-74.15426113299992
 20
4.538612112000067
 10
-74.15425464700002
 20
4.538654053999949
 10
-74.15450433799998
 20
4.538682800000061
 10
-74.15449226799996
 20
4.538838729000076
 10
-74.15417619099992
 20
4.538803747000031
  0
LWPOLYLINE
  5
E7
102
{ACAD_REACTORS
330
E5
102
}
330
1F
100
AcDbEntity
  8
6a
100
AcDbPolyline
 90
        6
 70
     1
 43
0.0
 10
-74.15562609699998
 20
4.539313654000011
 10
-74.15562633899992
 20
4.539249470000016
 10
-74.15563805099998
 20
4.539249654000059
 10
-74.15574560099992
 20
4.539382273000115
 10
-74.15563937500002
 20
4.539379093000036
 10
-74.15562676199994
 20
4.539378734999957
  0
LWPOLYLINE
  5
E8
102
{ACAD_REACTORS
330
E5
102
}
330
1F
100
AcDbEntity
  8
6a
100
AcDbPolyline
 90
        5
 70
     1
 43
0.0
 10
-74.15495381699998
 20
4.538933009999937
 10
-74.154971649
 20
4.538865746999988
 10
-74.15514252699995
 20
4.538945033000005
 10
-74.15507965399996
 20
4.538941055000009
 10
-74.15501669000002
 20
4.538936987
  0
LWPOLYLINE
  5
E9
330
1F
100
AcDbEntity
  8
6a
100
AcDbPolyline
 90
        4
 70
     1
 43
0.0
 10
-74.15419249699994
 20
4.540810057000101
 10
-74.15395433600003
 20
4.540793876000123
 10
-74.15395748799995
 20
4.540658283000141
 10
-74.15419114500003
 20
4.540674555000066
  0
LWPOLYLINE
  5
EB
102
{ACAD_REACTORS
330
EA
102
}
330
1F
100
AcDbEntity
  8
6a
100
AcDbPolyline
 90
       98
 70
     1
 43
0.0
 10
-74.154723622
 20
4.543630429000075
 10
-74.154677247
 20
4.543512773000089
 10
-74.15462417199996
 20
4.54354078199998
 10
-74.15460487199994
 20
4.543482357000073
 10
-74.15456658900001
 20
4.543366467999988
 10
-74.15448882799996
 20
4.543266894000055
 10
-74.15449012599998
 20
4.543234386999984
 10
-74.15443713600001
 20
4.543119557000068
 10
-74.15438351300003
 20
4.543015039000124
 10
-74.15434817800002
 20
4.542946169000118
 10
-74.15430582099998
 20
4.542972596000084
 10
-74.15429069099997
 20
4.542911154000137
 10
-74.15427725
 20
4.542849361000094
 10
-74.15425656100001
 20
4.542789545999995
 10
-74.15425627899998
 20
4.542788699000027
 10
-74.15421588499993
 20
4.54274011199999
 10
-74.15408858199999
 20
4.542803954000135
 10
-74.15407141099996
 20
4.542741320000118
 10
-74.15402728799995
 20
4.542759533000094
 10
-74.15398555599995
 20
4.542504448999978
 10
-74.15371033100001
 20
4.54262570700007
 10
-74.15369365299995
 20
4.542504450000081
 10
-74.153614414
 20
4.542516951000096
 10
-74.15358520899997
 20
4.542399861000035
 10
-74.15347261299996
 20
4.542416598999978
 10
-74.15343925699989
 20
4.542257700999983
 10
-74.15366029599994
 20
4.542220059999977
 10
-74.15409399999999
 20
4.542286938000018
 10
-74.15404177199991
 20
4.542114925000078
 10
-74.15401659799994
 20
4.542034328999989
 10
-74.15398831200002
 20
4.541942811000013
 10
-74.15380005499998
 20
4.541905656999973
 10
-74.15343524499991
 20
4.541905444000065
 10
-74.15336775899999
 20
4.541826562000097
 10
-74.153961004
 20
4.541808048000007
 10
-74.15413488499996
 20
4.541802620000055
 10
-74.15416106499993
 20
4.541917167000065
 10
-74.15419125400001
 20
4.54204004799999
 10
-74.15420981199998
 20
4.542115584000044
 10
-74.15424913700002
 20
4.542115738000064
 10
-74.15432531300002
 20
4.54211603400006
 10
-74.15434747999996
 20
4.542175285999974
 10
-74.15436957700001
 20
4.542234467000014
 10
-74.154391745
 20
4.542293717000121
 10
-74.15441391199988
 20
4.542352967999932
 10
-74.15454001900002
 20
4.542353461999994
 10
-74.15459335399999
 20
4.542353671000114
 10
-74.154586113
 20
4.542324579000024
 10
-74.154832134
 20
4.542337148999991
 10
-74.15485303499997
 20
4.542115471000102
 10
-74.154844519
 20
4.542050217000053
 10
-74.15495598799998
 20
4.542028747000018
 10
-74.15496154799996
 20
4.541965752999999
 10
-74.15494817699994
 20
4.541967802000045
 10
-74.15493564999997
 20
4.541899300000068
 10
-74.15492706499998
 20
4.54184576900002
 10
-74.15493389099998
 20
4.541791956999987
 10
-74.155002449
 20
4.541789690000087
 10
-74.155006797
 20
4.541745628000001
 10
-74.15501833799999
 20
4.541628680000088
 10
-74.15503072299992
 20
4.54150276300004
 10
-74.155169849
 20
4.541511308000111
 10
-74.15516576700003
 20
4.541613426000026
 10
-74.15516435999996
 20
4.541733622000038
 10
-74.155163663
 20
4.541793197000118
 10
-74.15514690799995
 20
4.541794357000015
 10
-74.15507667700001
 20
4.541795628999921
 10
-74.15507787299993
 20
4.54191137600003
 10
-74.15508308
 20
4.542027828999949
 10
-74.15504676900002
 20
4.542082701000083
 10
-74.15502037999988
 20
4.542197246999933
 10
-74.15497822700002
 20
4.542316527000025
 10
-74.15497569399992
 20
4.54234908300009
 10
-74.15494859999995
 20
4.542468079000002
 10
-74.15491179600002
 20
4.542579660999991
 10
-74.15489560299994
 20
4.54262875400002
 10
-74.15511988700001
 20
4.54266334600004
 10
-74.15517604399997
 20
4.542667652000034
 10
-74.15514698099997
 20
4.542782483999986
 10
-74.15512016899999
 20
4.542892227000095
 10
-74.15507401999997
 20
4.542905848000032
 10
-74.15507400499996
 20
4.542905926999993
 10
-74.1544281269999
 20
4.542820528999982
 10
-74.15442935300001
 20
4.542876460999992
 10
-74.15443188599994
 20
4.542992138999978
 10
-74.15448051399989
 20
4.54302653100001
 10
-74.15447284299995
 20
4.543070173999979
 10
-74.15463103999997
 20
4.543122717000131
 10
-74.15462428399996
 20
4.543156331999967
 10
-74.15455268699998
 20
4.543249216999925
 10
-74.15458336999995
 20
4.543343708000066
 10
-74.15465838699993
 20
4.543374639000035
 10
-74.15471496599991
 20
4.543402534000109
 10
-74.154767746
 20
4.543427957000006
 10
-74.15473987199994
 20
4.543474423000134
 10
-74.15489657400002
 20
4.543547847000127
 10
-74.15493958500002
 20
4.543658659000073
 10
-74.15476999799995
 20
4.543748151000045
  0
LWPOLYLINE
  5
EC
102
{ACAD_REACTORS
330
EA
102
}
330
1F
100
AcDbEntity
  8
6a
100
AcDbPolyline
 90
       10
 70
     1
 43
0.0
 10
-74.15080239399992
 20
4.542528957000059
 10
-74.15086908299986
 20
4.542299184000115
 10
-74.15093767500002
 20
4.542276811000136
 10
-74.15101909700002
 20
4.54225034000001
 10
-74.15104689399999
 20
4.542342934000033
 10
-74.1511089039999
 20
4.542327519000082
 10
-74.15117423299995
 20
4.542310143000066
 10
-74.15119678299999
 20
4.54238562900008
 10
-74.15128314499992
 20
4.542403618000037
 10
-74.15127474799993
 20
4.542436373000044
  0
LWPOLYLINE
  5
ED
102
{ACAD_REACTORS
330
EA
102
}
330
1F
100
AcDbEntity
  8
6a
100
AcDbPolyline
 90
       11
 70
     1
 43
0.0
 10
-74.15514177499989
 20
4.543862981000132
 10
-74.155074711
 20
4.543755778000047
 10
-74.15502031299997
 20
4.543787699999996
 10
-74.15495324800003
 20
4.543680498000015
 10
-74.155042621
 20
4.543646740000042
 10
-74.155246208
 20
4.543684946000042
 10
-74.15536056299987
 20
4.543659452000043
 10
-74.15540806399997
 20
4.543625130999942
 10
-74.15544515099992
 20
4.543755493999981
 10
-74.15530468699995
 20
4.543787629000064
 10
-74.15521967799992
 20
4.543817571000091
  0
LWPOLYLINE
  5
EE
102
{ACAD_REACTORS
330
EA
102
}
330
1F
100
AcDbEntity
  8
6a
100
AcDbPolyline
 90
        9
 70
     1
 43
0.0
 10
-74.15306185100002
 20
4.542544774000021
 10
-74.15305995099993
 20
4.542379310000001
 10
-74.15319196899992
 20
4.542343012000003
 10
-74.15328190499991
 20
4.542337574000101
 10
-74.15333102400001
 20
4.542322460000094
 10
-74.15334925100001
 20
4.54241094799994
 10
-74.15337718899997
 20
4.542525071999989
 10
-74.15324010400002
 20
4.542539054000088
 10
-74.15315382699998
 20
4.542532840000092
  0
LWPOLYLINE
  5
EF
102
{ACAD_REACTORS
330
EA
102
}
330
1F
100
AcDbEntity
  8
6a
100
AcDbPolyline
 90
       48
 70
     1
 43
0.0
 10
-74.15234558999998
 20
4.542474062000053
 10
-74.15227111699994
 20
4.542457279000132
 10
-74.15222107
 20
4.5424639740001
 10
-74.15219270799997
 20
4.542460625999979
 10
-74.15212406999996
 20
4.542463254999916
 10
-74.152061151
 20
4.542472106000048
 10
-74.151985212
 20
4.54248440300006
 10
-74.15197845299997
 20
4.542485500000112
 10
-74.15197751699998
 20
4.54247009200003
 10
-74.15198196699993
 20
4.542468474000088
 10
-74.15209691899992
 20
4.542426682000041
 10
-74.15216073199997
 20
4.542433678000066
 10
-74.152232051
 20
4.54244264700003
 10
-74.15230372799999
 20
4.542452872000069
 10
-74.15233625000002
 20
4.542448050000019
 10
-74.15235050799993
 20
4.542445938000014
 10
-74.15236182000001
 20
4.54244426200006
 10
-74.15237881399997
 20
4.542431652000062
 10
-74.15239131200002
 20
4.542422377000094
 10
-74.152401569
 20
4.542420165999999
 10
-74.15246156699999
 20
4.542407233999995
 10
-74.15251697099995
 20
4.542395290000059
 10
-74.15257005899991
 20
4.542387399000063
 10
-74.15262546999998
 20
4.542379686000061
 10
-74.15268177500002
 20
4.54236784800014
 10
-74.15274344199997
 20
4.542346860000009
 10
-74.15280564699987
 20
4.54232461700002
 10
-74.15286588399994
 20
4.542289818000086
 10
-74.15294399599992
 20
4.542263988000059
 10
-74.15296687499995
 20
4.542327307999983
 10
-74.15300996599996
 20
4.542321689000119
 10
-74.15302311099998
 20
4.542319976000044
 10
-74.153015837
 20
4.542323185000043
 10
-74.15298133499999
 20
4.54233841100006
 10
-74.15289911199994
 20
4.542332192000003
 10
-74.15285049300002
 20
4.54233147399998
 10
-74.15283452599994
 20
4.542334822999976
 10
-74.152808547
 20
4.542341760000113
 10
-74.15278948100001
 20
4.542353956999932
 10
-74.15275087299995
 20
4.542382178000082
 10
-74.15274637200002
 20
4.542385824000007
 10
-74.15265196600001
 20
4.542462301000057
 10
-74.15260406199997
 20
4.542483108000056
 10
-74.15255663399995
 20
4.542492435999975
 10
-74.15251707199997
 20
4.542496500000084
 10
-74.15248688299994
 20
4.542496222000068
 10
-74.15246535499995
 20
4.542496022999956
 10
-74.152428176
 20
4.54249267400013
  0
LWPOLYLINE
  5
F0
102
{ACAD_REACTORS
330
EA
102
}
330
1F
100
AcDbEntity
  8
6a
100
AcDbPolyline
 90
       23
 70
     1
 43
0.0
 10
-74.15148750899994
 20
4.542516019000061
 10
-74.15149343899998
 20
4.542448486000069
 10
-74.15146207999999
 20
4.542445183999973
 10
-74.15134472499994
 20
4.542432829000063
 10
-74.1513934219999
 20
4.542390386000022
 10
-74.15152635599998
 20
4.542347448999919
 10
-74.15157815399999
 20
4.542330757000002
 10
-74.15159233899999
 20
4.542399352000075
 10
-74.15167576699997
 20
4.542418471000133
 10
-74.15176964199992
 20
4.542400981000128
 10
-74.1518550639999
 20
4.542511925999975
 10
-74.15181016600002
 20
4.542515174999949
 10
-74.15174711200001
 20
4.542513831000008
 10
-74.151732509
 20
4.542514159000064
 10
-74.15168412999998
 20
4.542515243000139
 10
-74.15168568000001
 20
4.542496306000089
 10
-74.15163399599999
 20
4.542483458999982
 10
-74.15163008399992
 20
4.542513973999974
 10
-74.15155802200002
 20
4.542515385000002
 10
-74.151561109
 20
4.542462655000065
 10
-74.151561189
 20
4.542461288000027
 10
-74.15150362499998
 20
4.542471954000007
 10
-74.151500951
 20
4.542517081000142
  0
LWPOLYLINE
  5
F2
102
{ACAD_REACTORS
330
F1
102
}
330
1F
100
AcDbEntity
  8
6a
100
AcDbPolyline
 90
       15
 70
     1
 43
0.0
 10
-74.15318306
 20
4.54704579700001
 10
-74.15316523000001
 20
4.547057483000117
 10
-74.15314253299994
 20
4.547012709000114
 10
-74.15309889799988
 20
4.547031934000017
 10
-74.15271781899997
 20
4.546782565000115
 10
-74.15272980499998
 20
4.546764508000081
 10
-74.15269428399995
 20
4.546728565999956
 10
-74.15265847299992
 20
4.546779546000096
 10
-74.15261728999991
 20
4.546737780000001
 10
-74.15255823000001
 20
4.546823183000072
 10
-74.15250316799995
 20
4.54675982699996
 10
-74.15256964999998
 20
4.546714958999985
 10
-74.15264595499997
 20
4.546682959000009
 10
-74.15287493199997
 20
4.54661817200008
 10
-74.15291932000002
 20
4.546588899000028
  0
LWPOLYLINE
  5
F3
102
{ACAD_REACTORS
330
F1
102
}
330
1F
100
AcDbEntity
  8
6a
100
AcDbPolyline
 90
        7
 70
     1
 43
0.0
 10
-74.15314246600002
 20
4.54640964400005
 10
-74.153081972
 20
4.546471213000075
 10
-74.15288044200003
 20
4.546604374000026
 10
-74.15280361899994
 20
4.546521276000078
 10
-74.15288941900002
 20
4.546453192000115
 10
-74.1529757209999
 20
4.546291984999982
 10
-74.15306672499997
 20
4.546332391000135
  0
LWPOLYLINE
  5
F4
330
1F
100
AcDbEntity
  8
6a
100
AcDbPolyline
 90
       52
 70
     1
 43
0.0
 10
-74.06850038699997
 20
4.586807998999973
 10
-74.0685282369999
 20
4.58676627300008
 10
-74.06849276599996
 20
4.586570108000103
 10
-74.068458985
 20
4.586392033000038
 10
-74.06840043
 20
4.586081671999978
 10
-74.06831766699997
 20
4.585628853000117
 10
-74.06826922200003
 20
4.585605670000064
 10
-74.06825345599998
 20
4.585525960000041
 10
-74.06822247100001
 20
4.585531044000106
 10
-74.06817742700002
 20
4.585313960999997
 10
-74.06814565799993
 20
4.585286779999933
 10
-74.06819381799994
 20
4.585295913000095
 10
-74.06830407799998
 20
4.585298546999979
 10
-74.06836793999997
 20
4.585352610999962
 10
-74.06846995199987
 20
4.585572861999992
 10
-74.06847342199995
 20
4.585580353000012
 10
-74.06850879099989
 20
4.585656715000084
 10
-74.06850446699997
 20
4.585657709000031
 10
-74.06838843899988
 20
4.585683819000053
 10
-74.06839960299999
 20
4.585734080000009
 10
-74.06840950700001
 20
4.585778194000113
 10
-74.06841932100002
 20
4.585822308000047
 10
-74.06842715199997
 20
4.585857512000132
 10
-74.06842913399987
 20
4.585866421999981
 10
-74.06843903799995
 20
4.585910445000138
 10
-74.0684488519999
 20
4.585954559000072
 10
-74.06846029199994
 20
4.585952028999998
 10
-74.06847010599995
 20
4.585996143000102
 10
-74.06847713299993
 20
4.585994516999961
 10
-74.06848694600001
 20
4.586038630000019
 10
-74.06852495699997
 20
4.586078769999915
 10
-74.06853476999999
 20
4.586122884000019
 10
-74.06854319099989
 20
4.586160394000103
 10
-74.06854467400001
 20
4.586166997000021
 10
-74.06855448699991
 20
4.586211111000125
 10
-74.06856430099992
 20
4.586255225000059
 10
-74.06857420499995
 20
4.586299248000046
 10
-74.06858401899996
 20
4.58634336199998
 10
-74.06859383199998
 20
4.586387476000084
 10
-74.068558699
 20
4.586395427000127
 10
-74.06857913699992
 20
4.586487180000006
 10
-74.06861436000003
 20
4.586479229000133
 10
-74.06861060999995
 20
4.586502573000075
 10
-74.06860958199997
 20
4.586508968000032
 10
-74.06855607299997
 20
4.586516374000098
 10
-74.068575431
 20
4.586591585000008
 10
-74.06862020300002
 20
4.586585985999989
 10
-74.06862191300002
 20
4.586598551000066
 10
-74.068628123
 20
4.58664420100007
 10
-74.068634514
 20
4.586690755000063
 10
-74.06863973399999
 20
4.586728360000052
 10
-74.06864549400001
 20
4.586770483999999
  0
LWPOLYLINE
  5
F5
330
1F
100
AcDbEntity
  8
6a
100
AcDbPolyline
 90
      147
 70
     1
 43
0.0
 10
-74.06913417499993
 20
4.584584528000107
 10
-74.069135888
 20
4.584566538999979
 10
-74.0691004009999
 20
4.584523235999995
 10
-74.06914193499995
 20
4.584468733000051
 10
-74.06916560799988
 20
4.58449461500004
 10
-74.06919839900002
 20
4.584530492000113
 10
-74.06921939099999
 20
4.584553260000007
 10
-74.06925529300003
 20
4.584592198999928
 10
-74.06925927499998
 20
4.584597525999925
 10
-74.06926072800002
 20
4.584599470000114
 10
-74.06926278600002
 20
4.584602225000083
 10
-74.06926514799994
 20
4.584605382999996
 10
-74.06926653999994
 20
4.584607246000019
 10
-74.06931474999993
 20
4.58467174499998
 10
-74.06931477799998
 20
4.584671780000065
 10
-74.069342065
 20
4.58464684300003
 10
-74.06937848299998
 20
4.584685655999976
 10
-74.06941644699992
 20
4.584724257000062
 10
-74.069413263
 20
4.584728695000081
 10
-74.06939537999995
 20
4.584753590999981
 10
-74.06940018
 20
4.584763584000029
 10
-74.069427813
 20
4.58482121500009
 10
-74.06942456299998
 20
4.584853819000102
 10
-74.06940919099998
 20
4.585008076000008
 10
-74.06938957300002
 20
4.585204937000015
 10
-74.06942737600002
 20
4.585229016000142
 10
-74.06944478899999
 20
4.585240106000015
 10
-74.06928278499998
 20
4.585563339000032
 10
-74.06928107300001
 20
4.585565328000087
 10
-74.06927918100001
 20
4.585567678000132
 10
-74.06927737899997
 20
4.58557002800012
 10
-74.06927548699997
 20
4.585572377999938
 10
-74.06927350500001
 20
4.585574637000036
 10
-74.069271523
 20
4.585576897000067
 10
-74.06926954099993
 20
4.58557906599998
 10
-74.06926746899995
 20
4.585581235000063
 10
-74.06926539699998
 20
4.585583313999962
 10
-74.06926332499995
 20
4.585585483000045
 10
-74.06926116199998
 20
4.585587471000053
 10
-74.06925890999997
 20
4.585589550000122
 10
-74.06925665799986
 20
4.585591539000063
 10
-74.06925440600003
 20
4.585593437
 10
-74.06925215299992
 20
4.585595334999994
 10
-74.06924981100002
 20
4.585597232999987
 10
-74.069247469
 20
4.585599040000034
 10
-74.06924503599998
 20
4.585600848000013
 10
-74.06924260400001
 20
4.585602565000045
 10
-74.06924017199998
 20
4.585604192000119
 10
-74.06923764899989
 20
4.58560590899998
 10
-74.06923512700001
 20
4.58560744600004
 10
-74.06923260399998
 20
4.585609073000057
 10
-74.06923008199999
 20
4.585610609000014
 10
-74.069227469
 20
4.585612055000126
 10
-74.069224857
 20
4.585613501000068
 10
-74.06922215399993
 20
4.585614856999996
 10
-74.069219541
 20
4.585616212000048
 10
-74.06921683899992
 20
4.585617478000131
 10
-74.06921413599997
 20
4.585618742999998
 10
-74.06921143400001
 20
4.585619917999963
 10
-74.06920864099999
 20
4.585621002000096
 10
-74.06920584800002
 20
4.585622087000104
 10
-74.06920305599994
 20
4.585623171000009
 10
-74.06920026299997
 20
4.58562416500007
 10
-74.06919747
 20
4.58562515899996
 10
-74.06919458799996
 20
4.585626063000063
 10
-74.06919170499998
 20
4.585626876000049
 10
-74.06918891200002
 20
4.585627689000034
 10
-74.06918602999997
 20
4.585628411000073
 10
-74.06918305699998
 20
4.585629134000044
 10
-74.069180174
 20
4.585629766000068
 10
-74.06917729199995
 20
4.585630308000134
 10
-74.06917431899996
 20
4.585630851000076
 10
-74.06917143599998
 20
4.585631393000142
 10
-74.06916846299993
 20
4.58563184400009
 10
-74.06916549099986
 20
4.585632205000024
 10
-74.06916251799998
 20
4.585632567000061
 10
-74.06915954499999
 20
4.585632837999981
 10
-74.069156572
 20
4.585633108000025
 10
-74.06915359999994
 20
4.5856332890001
 10
-74.06915062699994
 20
4.585633379000114
 10
-74.069147654
 20
4.585633469000129
 10
-74.069144682
 20
4.585633469000129
 10
-74.06914170900001
 20
4.585633468000026
 10
-74.06913873599996
 20
4.585633378000011
 10
-74.06913576299996
 20
4.585633287000121
 10
-74.06913279100002
 20
4.585633105999989
 10
-74.06912981800002
 20
4.585632833999966
 10
-74.06912684500003
 20
4.585632563000047
 10
-74.06912387299997
 20
4.58563220100001
 10
-74.06912089999997
 20
4.585631838999973
 10
-74.06911801699994
 20
4.585631386999978
 10
-74.06911504499993
 20
4.585630843999979
 10
-74.0691121619999
 20
4.585630301000037
 10
-74.06910919
 20
4.585629759000028
 10
-74.06910630700003
 20
4.585629126000015
 10
-74.06910342499998
 20
4.585628401999998
 10
-74.069100542
 20
4.585627588000079
 10
-74.06909765900002
 20
4.585626865000108
 10
-74.06909477699998
 20
4.585625961000062
 10
-74.06909198400001
 20
4.58562505499998
 10
-74.06908910200002
 20
4.585624151000047
 10
-74.06908630899989
 20
4.585623156000054
 10
-74.06908351700002
 20
4.585622071000103
 10
-74.06908072499994
 20
4.585620986000094
 10
-74.06907802199999
 20
4.585619811000072
 10
-74.06907523000001
 20
4.585618636000049
 10
-74.06907252799999
 20
4.585617370000136
 10
-74.06906982499993
 20
4.585616104000053
 10
-74.06906721299998
 20
4.585614748000069
 10
-74.06906460099987
 20
4.585613391000095
 10
-74.06906189799997
 20
4.585611944999926
 10
-74.06905937599998
 20
4.585610498000108
 10
-74.06905676399992
 20
4.585608961000048
 10
-74.06905424199999
 20
4.585607424000045
 10
-74.06905171999995
 20
4.585605797000142
 10
-74.06904928799992
 20
4.585604170000124
 10
-74.06904676599999
 20
4.585602451999989
 10
-74.06904433399995
 20
4.585600734000025
 10
-74.06904199199994
 20
4.585598926000046
 10
-74.06903964999992
 20
4.585597118000067
 10
-74.06903730800002
 20
4.585595310000087
 10
-74.069034966
 20
4.585593410999991
 10
-74.069032714
 20
4.585591422000107
 10
-74.06903046199989
 20
4.585589433000052
 10
-74.06902830099995
 20
4.585587443999941
 10
-74.06902613899996
 20
4.585585365000043
 10
-74.06902397799996
 20
4.585583285999974
 10
-74.06902190599999
 20
4.585581115999958
 10
-74.06901866399988
 20
4.585576777000085
 10
-74.06876240899999
 20
4.585335844000099
 10
-74.06876664499998
 20
4.585317043000089
 10
-74.06877457399992
 20
4.585281838000071
 10
-74.06880358000001
 20
4.585288396000067
 10
-74.06881556399998
 20
4.585235465999972
 10
-74.06881737100002
 20
4.58523587500008
 10
-74.06882694299992
 20
4.585238000000004
 10
-74.06882850399995
 20
4.585231095999973
 10
-74.06888070999992
 20
4.585235646000001
 10
-74.0689104249999
 20
4.585238236000009
 10
-74.06902527799997
 20
4.585248283000055
 10
-74.06903212700001
 20
4.585222068999997
 10
-74.06912698199994
 20
4.585233561000109
 10
-74.069146004
 20
4.585105655000007
 10
-74.06917915399993
 20
4.585109545000137
 10
-74.06918690799995
 20
4.585048529999938
 10
-74.069239154
 20
4.5850584800001
 10
-74.06917749499996
 20
4.584663809000006
  0
LWPOLYLINE
  5
F6
330
1F
100
AcDbEntity
  8
6a
100
AcDbPolyline
 90
       10
 70
     1
 43
0.0
 10
-74.158502194
 20
4.553235498000106
 10
-74.15854185299992
 20
4.553190863999987
 10
-74.158615849
 20
4.553109361999987
 10
-74.15864733099994
 20
4.553072901000064
 10
-74.15871040799999
 20
4.553132657000049
 10
-74.15878571299993
 20
4.553208728000016
 10
-74.15875578299995
 20
4.55331315799998
 10
-74.15871408599997
 20
4.553442610999923
 10
-74.15863342699993
 20
4.553363325000134
 10
-74.15858876699997
 20
4.553319425999973
  0
LWPOLYLINE
  5
F7
330
1F
100
AcDbEntity
  8
6a
100
AcDbPolyline
 90
       17
 70
     1
 43
0.0
 10
-74.06878556999987
 20
4.586866114000088
 10
-74.06878184300001
 20
4.586919313000124
 10
-74.06870301799995
 20
4.586840522999978
 10
-74.06862163299996
 20
4.586827180000057
 10
-74.06841110999989
 20
4.586885424000059
 10
-74.06839564900002
 20
4.586859558999947
 10
-74.06838211899998
 20
4.586847919000093
 10
-74.06836858999992
 20
4.586837573000082
 10
-74.06834797199997
 20
4.586823993000053
 10
-74.06832993299992
 20
4.586814292999975
 10
-74.06831446899997
 20
4.58680588499999
 10
-74.06830351699995
 20
4.586800712000013
 10
-74.068335123
 20
4.586799648000067
 10
-74.06839906699997
 20
4.58682715499998
 10
-74.06850038699997
 20
4.586807998999973
 10
-74.06864549400001
 20
4.586770483999999
 10
-74.06872378399999
 20
4.586805523000123
  0
LWPOLYLINE
  5
F8
330
1F
100
AcDbEntity
  8
6a
100
AcDbPolyline
 90
       27
 70
     1
 43
0.0
 10
-74.02091895400002
 20
4.736109473999988
 10
-74.02092224699993
 20
4.736264399000106
 10
-74.02142277699994
 20
4.736759230000132
 10
-74.021595972
 20
4.736587840000141
 10
-74.02181091800003
 20
4.736775390999924
 10
-74.02180709399988
 20
4.736813680000012
 10
-74.02171564600002
 20
4.736782160999951
 10
-74.02162243599997
 20
4.737027110000099
 10
-74.02150645899997
 20
4.736980433999918
 10
-74.02144240000001
 20
4.737142547000133
 10
-74.02093149000001
 20
4.736490149000133
 10
-74.02084539699996
 20
4.736449757000003
 10
-74.02079018500001
 20
4.736529350000126
 10
-74.02069655899999
 20
4.736450030000128
 10
-74.020762004
 20
4.736305351000112
 10
-74.02076551800002
 20
4.736156673999972
 10
-74.02068208199995
 20
4.736085291000052
 10
-74.02069288599995
 20
4.736062425000114
 10
-74.02062257900002
 20
4.736006221000082
 10
-74.02066450000001
 20
4.735579433000112
 10
-74.02072725899995
 20
4.735617926000032
 10
-74.02077079600002
 20
4.73583649599999
 10
-74.02080019399995
 20
4.735892477999982
 10
-74.02078609900002
 20
4.73595415199992
 10
-74.02081288599993
 20
4.735978339999974
 10
-74.02083528999992
 20
4.73597652300009
 10
-74.0208561959999
 20
4.736063985000044
  0
ENDSEC
  0
SECTION
  2
OBJECTS
  0
DICTIONARY
  5
C
330
0
100
AcDbDictionary
281
     1
  3
ACAD_GROUP
350
D
  3
ACAD_LAYOUT
350
1A
  3
ACAD_MATERIAL
350
43
  3
ACAD_MLEADERSTYLE
350
6B
  3
ACAD_MLINESTYLE
350
17
  3
ACAD_PLOTSETTINGS
350
19
  3
ACAD_PLOTSTYLENAME
350
E
  3
ACAD_SCALELIST
350
47
  3
ACAD_TABLESTYLE
350
69
  3
ACAD_VISUALSTYLE
350
2A
  3
AcDbVariableDictionary
350
6E
  3
ESRI_PRJ
350
F9
  0
DICTIONARY
  5
FA
330
8
100
AcDbDictionary
280
     1
281
     1
  3
ACAD_XREC_ROUNDTRIP
360
FB
  0
DICTIONARY
  5
D
102
{ACAD_REACTORS
330
C
102
}
330
C
100
AcDbDictionary
281
     1
  3
*A1
350
B7
  3
*A2
350
BC
  3
*A3
350
C2
  3
*A4
350
C5
  3
*A5
350
CD
  3
*A6
350
D7
  3
*A7
350
E5
  3
*A8
350
EA
  3
*A9
350
F1
  0
DICTIONARY
  5
1A
102
{ACAD_REACTORS
330
C
102
}
330
C
100
AcDbDictionary
281
     1
  3
Layout1
350
1E
  3
Layout2
350
26
  3
Model
350
22
  0
DICTIONARY
  5
43
102
{ACAD_REACTORS
330
C
102
}
330
C
100
AcDbDictionary
281
     1
  3
ByBlock
350
45
  3
ByLayer
350
44
  3
Global
350
46
  0
DICTIONARY
  5
6B
102
{ACAD_REACTORS
330
C
102
}
330
C
100
AcDbDictionary
281
     1
  3
Standard
350
6C
  0
DICTIONARY
  5
17
102
{ACAD_REACTORS
330
C
102
}
330
C
100
AcDbDictionary
281
     1
  3
Standard
350
18
  0
DICTIONARY
  5
19
102
{ACAD_REACTORS
330
C
102
}
330
C
100
AcDbDictionary
281
     1
  0
ACDBDICTIONARYWDFLT
  5
E
102
{ACAD_REACTORS
330
C
102
}
330
C
100
AcDbDictionary
281
     1
  3
Normal
350
F
100
AcDbDictionaryWithDefault
340
F
  0
DICTIONARY
  5
47
102
{ACAD_REACTORS
330
C
102
}
330
C
100
AcDbDictionary
281
     1
  3
A0
350
48
  3
A1
350
49
  3
A2
350
4A
  3
A3
350
4B
  3
A4
350
4C
  3
A5
350
4D
  3
A6
350
4E
  3
A7
350
4F
  3
A8
350
50
  3
A9
350
51
  3
B0
350
52
  3
B1
350
53
  3
B2
350
54
  3
B3
350
55
  3
B4
350
56
  3
B5
350
57
  3
B6
350
58
  3
B7
350
59
  3
B8
350
5A
  3
B9
350
5B
  3
C0
350
5C
  3
C1
350
5D
  3
C2
350
5E
  3
C3
350
5F
  3
C4
350
60
  3
C5
350
61
  3
C6
350
62
  3
C7
350
63
  3
C8
350
64
  3
C9
350
65
  3
D0
350
66
  3
D1
350
67
  3
D2
350
68
  0
DICTIONARY
  5
69
102
{ACAD_REACTORS
330
C
102
}
330
C
100
AcDbDictionary
281
     1
  3
Standard
350
6A
  0
DICTIONARY
  5
2A
102
{ACAD_REACTORS
330
C
102
}
330
C
100
AcDbDictionary
281
     1
  3
2dWireframe
350
2F
  3
Basic
350
32
  3
Brighten
350
36
  3
ColorChange
350
3A
  3
Conceptual
350
34
  3
Dim
350
35
  3
EdgeColorOff
350
3D
  3
Facepattern
350
39
  3
Flat
350
2B
  3
FlatWithEdges
350
2C
  3
Gouraud
350
2D
  3
GouraudWithEdges
350
2E
  3
Hidden
350
31
  3
JitterOff
350
3B
  3
Linepattern
350
38
  3
OverhangOff
350
3C
  3
Realistic
350
33
  3
Shaded
350
42
  3
Shaded with edges
350
41
  3
Shades of Gray
350
3E
  3
Sketchy
350
3F
  3
Thicken
350
37
  3
Wireframe
350
30
  3
X-Ray
350
40
  0
DICTIONARY
  5
6E
102
{ACAD_REACTORS
330
C
102
}
330
C
100
AcDbDictionary
281
     1
  3
CANNOSCALE
350
77
  3
CMLEADERSTYLE
350
70
  3
CTABLESTYLE
350
6F
  3
DIMASSOC
350
73
  3
HIDETEXT
350
74
  3
MSLTSCALE
350
78
  0
XRECORD
  5
F9
102
{ACAD_REACTORS
330
C
102
}
330
C
100
AcDbXrecord
280
     1
  1
GEOGCS["GCS_MAGNA",DATUM["D_MAGNA",SPHEROID["GRS_1980",6378137.0,298.257222101]],PRIMEM["Greenwich",0.0],UNIT["Degree",0.0174532925199433]]
  0
XRECORD
  5
FB
102
{ACAD_REACTORS
330
FA
102
}
330
FA
100
AcDbXrecord
280
     1
102
VTR_0.000_0.000_1.000_1.000_VISUALSTYLE
340
2F
102
VTR_0.000_0.000_1.000_1.000_GRIDDISPLAY
 70
     3
102
VTR_0.000_0.000_1.000_1.000_GRIDMAJOR
 70
     5
102
VTR_0.000_0.000_1.000_1.000_DEFAULTLIGHTING
280
     1
102
VTR_0.000_0.000_1.000_1.000_DEFAULTLIGHTINGTYPE
 70
     1
102
VTR_0.000_0.000_1.000_1.000_BRIGHTNESS
141
0.0
102
VTR_0.000_0.000_1.000_1.000_CONTRAST
142
0.0
  0
GROUP
  5
B7
102
{ACAD_REACTORS
330
D
102
}
330
D
100
AcDbGroup
300

 70
     0
 71
     1
340
B8
340
B9
340
BA
  0
GROUP
  5
BC
102
{ACAD_REACTORS
330
D
102
}
330
D
100
AcDbGroup
300

 70
     0
 71
     1
340
BD
340
BE
340
BF
340
C0
340
C1
  0
GROUP
  5
C2
102
{ACAD_REACTORS
330
D
102
}
330
D
100
AcDbGroup
300

 70
     0
 71
     1
340
C3
340
C4
  0
GROUP
  5
C5
102
{ACAD_REACTORS
330
D
102
}
330
D
100
AcDbGroup
300

 70
     0
 71
     1
340
C6
340
C7
  0
GROUP
  5
CD
102
{ACAD_REACTORS
330
D
102
}
330
D
100
AcDbGroup
300

 70
     0
 71
     1
340
CE
340
CF
340
D0
340
D1
340
D2
340
D3
  0
GROUP
  5
D7
102
{ACAD_REACTORS
330
D
102
}
330
D
100
AcDbGroup
300

 70
     0
 71
     1
340
D8
340
D9
340
DA
340
DB
340
DC
340
DD
340
DE
340
DF
340
E0
340
E1
340
E2
340
E3
340
E4
  0
GROUP
  5
E5
102
{ACAD_REACTORS
330
D
102
}
330
D
100
AcDbGroup
300

 70
     0
 71
     1
340
E6
340
E7
340
E8
  0
GROUP
  5
EA
102
{ACAD_REACTORS
330
D
102
}
330
D
100
AcDbGroup
300

 70
     0
 71
     1
340
EB
340
EC
340
ED
340
EE
340
EF
340
F0
  0
GROUP
  5
F1
102
{ACAD_REACTORS
330
D
102
}
330
D
100
AcDbGroup
300

 70
     0
 71
     1
340
F2
340
F3
  0
LAYOUT
  5
1E
102
{ACAD_REACTORS
330
1A
102
}
330
1A
100
AcDbPlotSettings
  1

  2
none_device
  4

  6

 40
0.0
 41
0.0
 42
0.0
 43
0.0
 44
0.0
 45
0.0
 46
0.0
 47
0.0
 48
0.0
 49
0.0
140
0.0
141
0.0
142
1.0
143
1.0
 70
   688
 72
     0
 73
     0
 74
     5
  7

 75
    16
147
1.0
148
0.0
149
0.0
100
AcDbLayout
  1
Layout1
 70
     1
 71
     1
 10
0.0
 20
0.0
 11
12.0
 21
9.0
 12
0.0
 22
0.0
 32
0.0
 14
1.000000000000000E+20
 24
1.000000000000000E+20
 34
1.000000000000000E+20
 15
-1.000000000000000E+20
 25
-1.000000000000000E+20
 35
-1.000000000000000E+20
146
0.0
 13
0.0
 23
0.0
 33
0.0
 16
1.0
 26
0.0
 36
0.0
 17
0.0
 27
1.0
 37
0.0
 76
     0
330
1B
  0
LAYOUT
  5
26
102
{ACAD_REACTORS
330
1A
102
}
330
1A
100
AcDbPlotSettings
  1

  2
none_device
  4

  6

 40
0.0
 41
0.0
 42
0.0
 43
0.0
 44
0.0
 45
0.0
 46
0.0
 47
0.0
 48
0.0
 49
0.0
140
0.0
141
0.0
142
1.0
143
1.0
 70
   688
 72
     0
 73
     0
 74
     5
  7

 75
    16
147
1.0
148
0.0
149
0.0
100
AcDbLayout
  1
Layout2
 70
     1
 71
     2
 10
0.0
 20
0.0
 11
0.0
 21
0.0
 12
0.0
 22
0.0
 32
0.0
 14
0.0
 24
0.0
 34
0.0
 15
0.0
 25
0.0
 35
0.0
146
0.0
 13
0.0
 23
0.0
 33
0.0
 16
1.0
 26
0.0
 36
0.0
 17
0.0
 27
1.0
 37
0.0
 76
     0
330
23
  0
LAYOUT
  5
22
102
{ACAD_REACTORS
330
1A
102
}
330
1A
100
AcDbPlotSettings
  1

  2
none_device
  4
Letter_(8.50_x_11.00_Inches)
  6

 40
6.35
 41
6.35
 42
6.35000508
 43
6.35000508
 44
215.9
 45
279.4
 46
0.0
 47
0.0
 48
0.0
 49
0.0
140
0.0
141
0.0
142
1.0
143
1.0
 70
  1712
 72
     0
 73
     0
 74
     0
  7

 75
     0
147
1.0
148
0.0
149
0.0
100
AcDbLayout
  1
Model
 70
     1
 71
     0
 10
0.0
 20
0.0
 11
12.0
 21
9.0
 12
0.0
 22
0.0
 32
0.0
 14
-74.17516034599987
 24
4.531170926999948
 34
0.0
 15
-74.02062257900002
 25
4.737142547000133
 35
0.0
146
0.0
 13
0.0
 23
0.0
 33
0.0
 16
1.0
 26
0.0
 36
0.0
 17
0.0
 27
1.0
 37
0.0
 76
     0
330
1F
331
29
  0
MATERIAL
  5
45
102
{ACAD_REACTORS
330
43
102
}
102
{ACAD_XDICTIONARY
360
12E
102
}
330
43
100
AcDbMaterial
  1
ByBlock
  0
MATERIAL
  5
44
102
{ACAD_REACTORS
330
43
102
}
102
{ACAD_XDICTIONARY
360
12C
102
}
330
43
100
AcDbMaterial
  1
ByLayer
  0
MATERIAL
  5
46
102
{ACAD_REACTORS
330
43
102
}
102
{ACAD_XDICTIONARY
360
130
102
}
330
43
100
AcDbMaterial
  1
Global
  0
MLEADERSTYLE
  5
6C
102
{ACAD_REACTORS
330
6B
102
}
102
{ACAD_XDICTIONARY
360
133
102
}
330
6B
100
AcDbMLeaderStyle
170
     2
171
     1
172
     0
 90
        2
 40
0.0
 41
0.0
173
     1
 91
-1056964608
340
14
 92
       -2
290
     1
 42
0.09
291
     1
 43
0.36
  3
Standard
341
0
 44
0.18
300

342
11
174
     1
178
     6
175
     1
176
     0
 93
-1056964608
 45
0.18
292
     0
297
     0
 46
0.18
343
0
 94
-1056964608
 47
1.0
 49
1.0
140
1.0
293
     1
141
0.0
294
     1
177
     0
142
1.0
295
     0
296
     0
143
0.125
1001
ACAD_MLEADERVER
1070
     2
  0
MLINESTYLE
  5
18
102
{ACAD_REACTORS
330
17
102
}
330
17
100
AcDbMlineStyle
  2
Standard
 70
     0
  3

 62
   256
 51
90.0
 52
90.0
 71
     2
 49
0.5
 62
   256
  6
BYLAYER
 49
-0.5
 62
   256
  6
BYLAYER
  0
ACDBPLACEHOLDER
  5
F
102
{ACAD_REACTORS
330
E
102
}
330
E
  0
SCALE
  5
48
102
{ACAD_REACTORS
330
47
102
}
330
47
100
AcDbScale
 70
     0
300
1:1
140
1.0
141
1.0
290
     1
  0
SCALE
  5
49
102
{ACAD_REACTORS
330
47
102
}
330
47
100
AcDbScale
 70
     0
300
1:2
140
1.0
141
2.0
290
     0
  0
SCALE
  5
4A
102
{ACAD_REACTORS
330
47
102
}
330
47
100
AcDbScale
 70
     0
300
1:4
140
1.0
141
4.0
290
     0
  0
SCALE
  5
4B
102
{ACAD_REACTORS
330
47
102
}
330
47
100
AcDbScale
 70
     0
300
1:5
140
1.0
141
5.0
290
     0
  0
SCALE
  5
4C
102
{ACAD_REACTORS
330
47
102
}
330
47
100
AcDbScale
 70
     0
300
1:8
140
1.0
141
8.0
290
     0
  0
SCALE
  5
4D
102
{ACAD_REACTORS
330
47
102
}
330
47
100
AcDbScale
 70
     0
300
1:10
140
1.0
141
10.0
290
     0
  0
SCALE
  5
4E
102
{ACAD_REACTORS
330
47
102
}
330
47
100
AcDbScale
 70
     0
300
1:16
140
1.0
141
16.0
290
     0
  0
SCALE
  5
4F
102
{ACAD_REACTORS
330
47
102
}
330
47
100
AcDbScale
 70
     0
300
1:20
140
1.0
141
20.0
290
     0
  0
SCALE
  5
50
102
{ACAD_REACTORS
330
47
102
}
330
47
100
AcDbScale
 70
     0
300
1:30
140
1.0
141
30.0
290
     0
  0
SCALE
  5
51
102
{ACAD_REACTORS
330
47
102
}
330
47
100
AcDbScale
 70
     0
300
1:40
140
1.0
141
40.0
290
     0
  0
SCALE
  5
52
102
{ACAD_REACTORS
330
47
102
}
330
47
100
AcDbScale
 70
     0
300
1:50
140
1.0
141
50.0
290
     0
  0
SCALE
  5
53
102
{ACAD_REACTORS
330
47
102
}
330
47
100
AcDbScale
 70
     0
300
1:100
140
1.0
141
100.0
290
     0
  0
SCALE
  5
54
102
{ACAD_REACTORS
330
47
102
}
330
47
100
AcDbScale
 70
     0
300
2:1
140
2.0
141
1.0
290
     0
  0
SCALE
  5
55
102
{ACAD_REACTORS
330
47
102
}
330
47
100
AcDbScale
 70
     0
300
4:1
140
4.0
141
1.0
290
     0
  0
SCALE
  5
56
102
{ACAD_REACTORS
330
47
102
}
330
47
100
AcDbScale
 70
     0
300
8:1
140
8.0
141
1.0
290
     0
  0
SCALE
  5
57
102
{ACAD_REACTORS
330
47
102
}
330
47
100
AcDbScale
 70
     0
300
10:1
140
10.0
141
1.0
290
     0
  0
SCALE
  5
58
102
{ACAD_REACTORS
330
47
102
}
330
47
100
AcDbScale
 70
     0
300
100:1
140
100.0
141
1.0
290
     0
  0
SCALE
  5
59
102
{ACAD_REACTORS
330
47
102
}
330
47
100
AcDbScale
 70
     0
300
1/128" = 1'-0"
140
0.0078125
141
12.0
290
     0
  0
SCALE
  5
5A
102
{ACAD_REACTORS
330
47
102
}
330
47
100
AcDbScale
 70
     0
300
1/64" = 1'-0"
140
0.015625
141
12.0
290
     0
  0
SCALE
  5
5B
102
{ACAD_REACTORS
330
47
102
}
330
47
100
AcDbScale
 70
     0
300
1/32" = 1'-0"
140
0.03125
141
12.0
290
     0
  0
SCALE
  5
5C
102
{ACAD_REACTORS
330
47
102
}
330
47
100
AcDbScale
 70
     0
300
1/16" = 1'-0"
140
0.0625
141
12.0
290
     0
  0
SCALE
  5
5D
102
{ACAD_REACTORS
330
47
102
}
330
47
100
AcDbScale
 70
     0
300
3/32" = 1'-0"
140
0.09375
141
12.0
290
     0
  0
SCALE
  5
5E
102
{ACAD_REACTORS
330
47
102
}
330
47
100
AcDbScale
 70
     0
300
1/8" = 1'-0"
140
0.125
141
12.0
290
     0
  0
SCALE
  5
5F
102
{ACAD_REACTORS
330
47
102
}
330
47
100
AcDbScale
 70
     0
300
3/16" = 1'-0"
140
0.1875
141
12.0
290
     0
  0
SCALE
  5
60
102
{ACAD_REACTORS
330
47
102
}
330
47
100
AcDbScale
 70
     0
300
1/4" = 1'-0"
140
0.25
141
12.0
290
     0
  0
SCALE
  5
61
102
{ACAD_REACTORS
330
47
102
}
330
47
100
AcDbScale
 70
     0
300
3/8" = 1'-0"
140
0.375
141
12.0
290
     0
  0
SCALE
  5
62
102
{ACAD_REACTORS
330
47
102
}
330
47
100
AcDbScale
 70
     0
300
1/2" = 1'-0"
140
0.5
141
12.0
290
     0
  0
SCALE
  5
63
102
{ACAD_REACTORS
330
47
102
}
330
47
100
AcDbScale
 70
     0
300
3/4" = 1'-0"
140
0.75
141
12.0
290
     0
  0
SCALE
  5
64
102
{ACAD_REACTORS
330
47
102
}
330
47
100
AcDbScale
 70
     0
300
1" = 1'-0"
140
1.0
141
12.0
290
     0
  0
SCALE
  5
65
102
{ACAD_REACTORS
330
47
102
}
330
47
100
AcDbScale
 70
     0
300
1-1/2" = 1'-0"
140
1.5
141
12.0
290
     0
  0
SCALE
  5
66
102
{ACAD_REACTORS
330
47
102
}
330
47
100
AcDbScale
 70
     0
300
3" = 1'-0"
140
3.0
141
12.0
290
     0
  0
SCALE
  5
67
102
{ACAD_REACTORS
330
47
102
}
330
47
100
AcDbScale
 70
     0
300
6" = 1'-0"
140
6.0
141
12.0
290
     0
  0
SCALE
  5
68
102
{ACAD_REACTORS
330
47
102
}
330
47
100
AcDbScale
 70
     0
300
1'-0" = 1'-0"
140
12.0
141
12.0
290
     0
  0
TABLESTYLE
  5
6A
102
{ACAD_REACTORS
330
69
102
}
330
69
100
AcDbTableStyle
  3
Standard
 70
     0
 71
     0
 40
0.06
 41
0.06
280
     0
281
     0
  7
Standard
140
0.18
170
     2
 62
     0
 63
   257
283
     0
274
    -2
284
     1
 64
     0
275
    -2
285
     1
 65
     0
276
    -2
286
     1
 66
     0
277
    -2
287
     1
 67
     0
278
    -2
288
     1
 68
     0
279
    -2
289
     1
 69
     0
  7
Standard
140
0.25
170
     5
 62
     0
 63
   257
283
     0
274
    -2
284
     1
 64
     0
275
    -2
285
     1
 65
     0
276
    -2
286
     1
 66
     0
277
    -2
287
     1
 67
     0
278
    -2
288
     1
 68
     0
279
    -2
289
     1
 69
     0
  7
Standard
140
0.18
170
     5
 62
     0
 63
   257
283
     0
274
    -2
284
     1
 64
     0
275
    -2
285
     1
 65
     0
276
    -2
286
     1
 66
     0
277
    -2
287
     1
 67
     0
278
    -2
288
     1
 68
     0
279
    -2
289
     1
 69
     0
  0
VISUALSTYLE
  5
2F
102
{ACAD_REACTORS
330
2A
102
}
102
{ACAD_XDICTIONARY
360
104
102
}
330
2A
100
AcDbVisualStyle
  2
2dWireframe
 70
     4
 71
     0
 72
     2
 73
     0
 90
        0
 40
0.6
 41
30.0
 62
     5
 63
     7
 74
     1
 91
        4
 64
     7
 65
   257
 75
     1
175
     1
 42
1.0
 92
        0
 66
   257
 43
1.0
 76
     1
 77
     6
 78
     2
 67
     7
 79
     5
170
     0
171
     0
290
     0
174
     0
 93
        1
 44
0.0
173
     0
291
     0
 45
0.0
1001
ACAD
1000
AcDbSavedByObjectVersion
1070
     0
  0
VISUALSTYLE
  5
32
102
{ACAD_REACTORS
330
2A
102
}
102
{ACAD_XDICTIONARY
360
10A
102
}
330
2A
100
AcDbVisualStyle
  2
Basic
 70
     7
 71
     1
 72
     0
 73
     1
 90
        0
 40
0.6
 41
30.0
 62
     5
 63
     7
 74
     0
 91
        4
 64
     7
 65
   257
 75
     1
175
     1
 42
1.0
 92
        8
 66
     7
 43
1.0
 76
     1
 77
     6
 78
     2
 67
     7
 79
     5
170
     0
171
     0
290
     0
174
     0
 93
        1
 44
0.0
173
     0
291
     1
 45
0.0
1001
ACAD
1000
AcDbSavedByObjectVersion
1070
     0
  0
VISUALSTYLE
  5
36
102
{ACAD_REACTORS
330
2A
102
}
102
{ACAD_XDICTIONARY
360
112
102
}
330
2A
100
AcDbVisualStyle
  2
Brighten
 70
    12
 71
     2
 72
     2
 73
     0
 90
        0
 40
0.6
 41
30.0
 62
     5
 63
     7
 74
     1
 91
        4
 64
     7
 65
   257
 75
     1
175
     1
 42
1.0
 92
        8
 66
     7
 43
1.0
 76
     1
 77
     6
 78
     2
 67
     7
 79
     5
170
     0
171
     0
290
     0
174
     0
 93
        1
 44
50.0
173
     0
291
     1
 45
0.0
1001
ACAD
1000
AcDbSavedByObjectVersion
1070
     0
  0
VISUALSTYLE
  5
3A
102
{ACAD_REACTORS
330
2A
102
}
102
{ACAD_XDICTIONARY
360
11A
102
}
330
2A
100
AcDbVisualStyle
  2
ColorChange
 70
    16
 71
     2
 72
     2
 73
     3
 90
        0
 40
0.6
 41
30.0
 62
     5
 63
     8
 74
     1
 91
        4
 64
     7
 65
   257
 75
     1
175
     1
 42
1.0
 92
        8
 66
     8
 43
1.0
 76
     1
 77
     6
 78
     2
 67
     7
 79
     5
170
     0
171
     0
290
     0
174
     0
 93
        1
 44
0.0
173
     0
291
     1
 45
0.0
1001
ACAD
1000
AcDbSavedByObjectVersion
1070
     0
  0
VISUALSTYLE
  5
34
102
{ACAD_REACTORS
330
2A
102
}
102
{ACAD_XDICTIONARY
360
10E
102
}
330
2A
100
AcDbVisualStyle
  2
Conceptual
 70
     9
 71
     3
 72
     2
 73
     0
 90
        0
 40
0.6
 41
30.0
 62
     5
 63
     7
 74
     2
 91
        2
 64
     7
 65
   257
 75
     1
175
     1
 42
179.0
 92
        8
 66
     7
 43
1.0
 76
     1
 77
     6
 78
     2
 67
     7
 79
     3
170
     0
171
     0
290
     0
174
     0
 93
        1
 44
0.0
173
     0
291
     0
 45
0.0
1001
ACAD
1000
AcDbSavedByObjectVersion
1070
     0
  0
VISUALSTYLE
  5
35
102
{ACAD_REACTORS
330
2A
102
}
102
{ACAD_XDICTIONARY
360
110
102
}
330
2A
100
AcDbVisualStyle
  2
Dim
 70
    11
 71
     2
 72
     2
 73
     0
 90
        0
 40
0.6
 41
30.0
 62
     5
 63
     7
 74
     1
 91
        4
 64
     7
 65
   257
 75
     1
175
     1
 42
1.0
 92
        8
 66
     7
 43
1.0
 76
     1
 77
     6
 78
     2
 67
     7
 79
     5
170
     0
171
     0
290
     0
174
     0
 93
        1
 44
-50.0
173
     0
291
     1
 45
0.0
1001
ACAD
1000
AcDbSavedByObjectVersion
1070
     0
  0
VISUALSTYLE
  5
3D
102
{ACAD_REACTORS
330
2A
102
}
102
{ACAD_XDICTIONARY
360
120
102
}
330
2A
100
AcDbVisualStyle
  2
EdgeColorOff
 70
    22
 71
     2
 72
     2
 73
     0
 90
        0
 40
0.6
 41
30.0
 62
     5
 63
     7
 74
     1
 91
        4
 64
     7
 65
   257
 75
     1
175
     1
 42
1.0
 92
        8
 66
     7
 43
1.0
 76
     1
 77
     6
 78
     2
 67
     7
 79
     5
170
     0
171
     0
290
     0
174
     0
 93
        1
 44
0.0
173
     0
291
     1
 45
0.0
1001
ACAD
1000
AcDbSavedByObjectVersion
1070
     0
  0
VISUALSTYLE
  5
39
102
{ACAD_REACTORS
330
2A
102
}
102
{ACAD_XDICTIONARY
360
118
102
}
330
2A
100
AcDbVisualStyle
  2
Facepattern
 70
    15
 71
     2
 72
     2
 73
     0
 90
        0
 40
0.6
 41
30.0
 62
     5
 63
     7
 74
     1
 91
        4
 64
     7
 65
   257
 75
     1
175
     1
 42
1.0
 92
        8
 66
     7
 43
1.0
 76
     1
 77
     6
 78
     2
 67
     7
 79
     5
170
     0
171
     0
290
     0
174
     0
 93
        1
 44
0.0
173
     0
291
     1
 45
0.0
1001
ACAD
1000
AcDbSavedByObjectVersion
1070
     0
  0
VISUALSTYLE
  5
2B
102
{ACAD_REACTORS
330
2A
102
}
102
{ACAD_XDICTIONARY
360
FC
102
}
330
2A
100
AcDbVisualStyle
  2
Flat
 70
     0
 71
     2
 72
     1
 73
     1
 90
        2
 40
0.6
 41
30.0
 62
     5
 63
     7
 74
     0
 91
        0
 64
     7
 65
   257
 75
     1
175
     1
 42
1.0
 92
        8
 66
     7
 43
1.0
 76
     1
 77
     6
 78
     2
 67
     7
 79
     5
170
     0
171
     0
290
     0
174
     0
 93
       13
 44
0.0
173
     0
291
     1
 45
0.0
1001
ACAD
1000
AcDbSavedByObjectVersion
1070
     0
  0
VISUALSTYLE
  5
2C
102
{ACAD_REACTORS
330
2A
102
}
102
{ACAD_XDICTIONARY
360
FE
102
}
330
2A
100
AcDbVisualStyle
  2
FlatWithEdges
 70
     1
 71
     2
 72
     1
 73
     1
 90
        2
 40
0.6
 41
30.0
 62
     5
 63
     7
 74
     1
 91
        0
 64
     7
 65
   257
 75
     1
175
     1
 42
1.0
 92
        0
 66
   257
 43
1.0
 76
     1
 77
     6
 78
     2
 67
     7
 79
     5
170
     0
171
     0
290
     0
174
     0
 93
       13
 44
0.0
173
     0
291
     1
 45
0.0
1001
ACAD
1000
AcDbSavedByObjectVersion
1070
     0
  0
VISUALSTYLE
  5
2D
102
{ACAD_REACTORS
330
2A
102
}
102
{ACAD_XDICTIONARY
360
100
102
}
330
2A
100
AcDbVisualStyle
  2
Gouraud
 70
     2
 71
     2
 72
     2
 73
     1
 90
        2
 40
0.6
 41
30.0
 62
     5
 63
     7
 74
     0
 91
        0
 64
     7
 65
   257
 75
     1
175
     1
 42
1.0
 92
        0
 66
     7
 43
1.0
 76
     1
 77
     6
 78
     2
 67
     7
 79
     5
170
     0
171
     0
290
     0
174
     0
 93
       13
 44
0.0
173
     0
291
     1
 45
0.0
1001
ACAD
1000
AcDbSavedByObjectVersion
1070
     0
  0
VISUALSTYLE
  5
2E
102
{ACAD_REACTORS
330
2A
102
}
102
{ACAD_XDICTIONARY
360
102
102
}
330
2A
100
AcDbVisualStyle
  2
GouraudWithEdges
 70
     3
 71
     2
 72
     2
 73
     1
 90
        2
 40
0.6
 41
30.0
 62
     5
 63
     7
 74
     1
 91
        0
 64
     7
 65
   257
 75
     1
175
     1
 42
1.0
 92
        0
 66
   257
 43
1.0
 76
     1
 77
     6
 78
     2
 67
     7
 79
     5
170
     0
171
     0
290
     0
174
     0
 93
       13
 44
0.0
173
     0
291
     1
 45
0.0
1001
ACAD
1000
AcDbSavedByObjectVersion
1070
     0
  0
VISUALSTYLE
  5
31
102
{ACAD_REACTORS
330
2A
102
}
102
{ACAD_XDICTIONARY
360
108
102
}
330
2A
100
AcDbVisualStyle
  2
Hidden
 70
     6
 71
     1
 72
     2
 73
     2
 90
        0
 40
0.6
 41
30.0
 62
     5
 63
     7
 74
     2
 91
        2
 64
     7
 65
   257
 75
     2
175
     1
 42
40.0
 92
        0
 66
   257
 43
1.0
 76
     1
 77
     6
 78
     2
 67
     7
 79
     3
170
     0
171
     0
290
     0
174
     0
 93
        1
 44
0.0
173
     0
291
     0
 45
0.0
1001
ACAD
1000
AcDbSavedByObjectVersion
1070
     0
  0
VISUALSTYLE
  5
3B
102
{ACAD_REACTORS
330
2A
102
}
102
{ACAD_XDICTIONARY
360
11C
102
}
330
2A
100
AcDbVisualStyle
  2
JitterOff
 70
    20
 71
     2
 72
     2
 73
     0
 90
        0
 40
0.6
 41
30.0
 62
     5
 63
     7
 74
     1
 91
        4
 64
     7
 65
   257
 75
     1
175
     1
 42
1.0
 92
       10
 66
     7
 43
1.0
 76
     1
 77
     6
 78
     2
 67
     7
 79
     5
170
     0
171
     0
290
     0
174
     0
 93
        1
 44
0.0
173
     0
291
     1
 45
0.0
1001
ACAD
1000
AcDbSavedByObjectVersion
1070
     0
  0
VISUALSTYLE
  5
38
102
{ACAD_REACTORS
330
2A
102
}
102
{ACAD_XDICTIONARY
360
116
102
}
330
2A
100
AcDbVisualStyle
  2
Linepattern
 70
    14
 71
     2
 72
     2
 73
     0
 90
        0
 40
0.6
 41
30.0
 62
     5
 63
     7
 74
     1
 91
        4
 64
     7
 65
   257
 75
     7
175
     7
 42
1.0
 92
        8
 66
     7
 43
1.0
 76
     1
 77
     6
 78
     2
 67
     7
 79
     5
170
     0
171
     0
290
     0
174
     0
 93
        1
 44
0.0
173
     0
291
     1
 45
0.0
1001
ACAD
1000
AcDbSavedByObjectVersion
1070
     0
  0
VISUALSTYLE
  5
3C
102
{ACAD_REACTORS
330
2A
102
}
102
{ACAD_XDICTIONARY
360
11E
102
}
330
2A
100
AcDbVisualStyle
  2
OverhangOff
 70
    21
 71
     2
 72
     2
 73
     0
 90
        0
 40
0.6
 41
30.0
 62
     5
 63
     7
 74
     1
 91
        4
 64
     7
 65
   257
 75
     1
175
     1
 42
1.0
 92
        9
 66
     7
 43
1.0
 76
     1
 77
     6
 78
     2
 67
     7
 79
     5
170
     0
171
     0
290
     0
174
     0
 93
        1
 44
0.0
173
     0
291
     1
 45
0.0
1001
ACAD
1000
AcDbSavedByObjectVersion
1070
     0
  0
VISUALSTYLE
  5
33
102
{ACAD_REACTORS
330
2A
102
}
102
{ACAD_XDICTIONARY
360
10C
102
}
330
2A
100
AcDbVisualStyle
  2
Realistic
 70
     8
 71
     2
 72
     3
 73
     0
 90
        2
 40
0.6
 41
30.0
 62
     5
 63
     7
 74
     0
 91
        0
 64
     7
 65
   257
 75
     1
175
     1
 42
1.0
 92
        8
 66
   257
 43
1.0
 76
     1
 77
     6
 78
     2
 67
     7
 79
     3
170
     0
171
     0
290
     0
174
     0
 93
       13
 44
0.0
173
     0
291
     0
 45
0.0
1001
ACAD
1000
AcDbSavedByObjectVersion
1070
     0
  0
VISUALSTYLE
  5
42
102
{ACAD_REACTORS
330
2A
102
}
102
{ACAD_XDICTIONARY
360
12A
102
}
330
2A
100
AcDbVisualStyle
  2
Shaded
 70
    27
 71
     2
 72
     2
 73
     1
 90
        2
 40
0.6
 41
30.0
 62
     5
 63
     7
 74
     0
 91
        4
 64
     7
 65
   257
 75
     1
175
     1
 42
1.0
 92
        8
 66
   257
 43
1.0
 76
     1
 77
     6
 78
     2
 67
     8
 79
     3
170
     0
171
     0
290
     0
174
     0
 93
        5
 44
0.0
173
     0
291
     0
 45
0.0
1001
ACAD
1000
AcDbSavedByObjectVersion
1070
     0
  0
VISUALSTYLE
  5
41
102
{ACAD_REACTORS
330
2A
102
}
102
{ACAD_XDICTIONARY
360
128
102
}
330
2A
100
AcDbVisualStyle
  2
Shaded with edges
 70
    26
 71
     2
 72
     2
 73
     1
 90
        2
 40
0.6
 41
30.0
 62
     5
 63
     7
 74
     1
 91
       10
 64
     7
 65
   257
 75
     2
175
     1
 42
1.0
 92
        8
 66
   257
 43
1.0
 76
     1
 77
     6
 78
     2
 67
     7
 79
     3
170
     0
171
     0
290
     0
174
     0
 93
        5
 44
0.0
173
     0
291
     0
 45
0.0
1001
ACAD
1000
AcDbSavedByObjectVersion
1070
     0
  0
VISUALSTYLE
  5
3E
102
{ACAD_REACTORS
330
2A
102
}
102
{ACAD_XDICTIONARY
360
122
102
}
330
2A
100
AcDbVisualStyle
  2
Shades of Gray
 70
    23
 71
     2
 72
     2
 73
     3
 90
        0
 40
0.6
 41
30.0
 62
     5
 63
     7
 74
     2
 91
        2
 64
     7
 65
     7
 75
     1
175
     1
 42
40.0
 92
        8
 66
     7
 43
1.0
 76
     1
 77
     6
 78
     2
 67
     7
 79
     3
170
     0
171
     0
290
     0
174
     0
 93
        1
 44
0.0
173
     0
291
     0
 45
0.0
1001
ACAD
1000
AcDbSavedByObjectVersion
1070
     0
  0
VISUALSTYLE
  5
3F
102
{ACAD_REACTORS
330
2A
102
}
102
{ACAD_XDICTIONARY
360
124
102
}
330
2A
100
AcDbVisualStyle
  2
Sketchy
 70
    24
 71
     1
 72
     2
 73
     2
 90
        0
 40
0.6
 41
30.0
 62
     5
 63
     7
 74
     2
 91
        2
 64
     7
 65
     7
 75
     1
175
     1
 42
40.0
 92
       11
 66
     7
 43
1.0
 76
     1
 77
     6
 78
     2
 67
     7
 79
     6
170
     0
171
     0
290
     0
174
     0
 93
        1
 44
0.0
173
     0
291
     0
 45
0.0
1001
ACAD
1000
AcDbSavedByObjectVersion
1070
     0
  0
VISUALSTYLE
  5
37
102
{ACAD_REACTORS
330
2A
102
}
102
{ACAD_XDICTIONARY
360
114
102
}
330
2A
100
AcDbVisualStyle
  2
Thicken
 70
    13
 71
     2
 72
     2
 73
     0
 90
        0
 40
0.6
 41
30.0
 62
     5
 63
     7
 74
     1
 91
        4
 64
     7
 65
   257
 75
     1
175
     1
 42
1.0
 92
       12
 66
     7
 43
1.0
 76
     1
 77
     6
 78
     2
 67
     7
 79
     5
170
     0
171
     0
290
     0
174
     0
 93
        1
 44
0.0
173
     0
291
     1
 45
0.0
1001
ACAD
1000
AcDbSavedByObjectVersion
1070
     0
  0
VISUALSTYLE
  5
30
102
{ACAD_REACTORS
330
2A
102
}
102
{ACAD_XDICTIONARY
360
106
102
}
330
2A
100
AcDbVisualStyle
  2
Wireframe
 70
     5
 71
     0
 72
     2
 73
     0
 90
        0
 40
0.6
 41
30.0
 62
     5
 63
     7
 74
     1
 91
        4
 64
     7
 65
   257
 75
     1
175
     1
 42
1.0
 92
        0
 66
   257
 43
1.0
 76
     1
 77
     6
 78
     2
 67
     7
 79
     3
170
     0
171
     0
290
     0
174
     0
 93
        1
 44
0.0
173
     0
291
     0
 45
0.0
1001
ACAD
1000
AcDbSavedByObjectVersion
1070
     0
  0
VISUALSTYLE
  5
40
102
{ACAD_REACTORS
330
2A
102
}
102
{ACAD_XDICTIONARY
360
126
102
}
330
2A
100
AcDbVisualStyle
  2
X-Ray
 70
    25
 71
     2
 72
     2
 73
     1
 90
        1
 40
0.5
 41
30.0
 62
     5
 63
     7
 74
     1
 91
        0
 64
     7
 65
   257
 75
     1
175
     1
 42
1.0
 92
        8
 66
     7
 43
1.0
 76
     1
 77
     6
 78
     2
 67
     7
 79
     3
170
     0
171
     0
290
     0
174
     0
 93
       13
 44
0.0
173
     0
291
     0
 45
0.0
1001
ACAD
1000
AcDbSavedByObjectVersion
1070
     0
  0
DICTIONARYVAR
  5
77
102
{ACAD_REACTORS
330
6E
102
}
330
6E
100
DictionaryVariables
280
     0
  1
1:1
  0
DICTIONARYVAR
  5
70
102
{ACAD_REACTORS
330
6E
102
}
330
6E
100
DictionaryVariables
280
     0
  1
Standard
  0
DICTIONARYVAR
  5
6F
102
{ACAD_REACTORS
330
6E
102
}
330
6E
100
DictionaryVariables
280
     0
  1
Standard
  0
DICTIONARYVAR
  5
73
102
{ACAD_REACTORS
330
6E
102
}
330
6E
100
DictionaryVariables
280
     0
  1
2
  0
DICTIONARYVAR
  5
74
102
{ACAD_REACTORS
330
6E
102
}
330
6E
100
DictionaryVariables
280
     0
  1
1
  0
DICTIONARYVAR
  5
78
102
{ACAD_REACTORS
330
6E
102
}
330
6E
100
DictionaryVariables
280
     0
  1
1
  0
DICTIONARY
  5
12E
330
45
100
AcDbDictionary
280
     1
281
     1
  3
ACAD_XREC_ROUNDTRIP
360
12F
  0
DICTIONARY
  5
12C
330
44
100
AcDbDictionary
280
     1
281
     1
  3
ACAD_XREC_ROUNDTRIP
360
12D
  0
DICTIONARY
  5
130
330
46
100
AcDbDictionary
280
     1
281
     1
  3
ACAD_XREC_ROUNDTRIP
360
131
  0
DICTIONARY
  5
133
330
6C
100
AcDbDictionary
280
     1
281
     1
  3
ACAD_XREC_ROUNDTRIP
360
134
  0
DICTIONARY
  5
104
330
2F
100
AcDbDictionary
280
     1
281
     1
  3
ACAD_XREC_ROUNDTRIP
360
105
  0
DICTIONARY
  5
10A
330
32
100
AcDbDictionary
280
     1
281
     1
  3
ACAD_XREC_ROUNDTRIP
360
10B
  0
DICTIONARY
  5
112
330
36
100
AcDbDictionary
280
     1
281
     1
  3
ACAD_XREC_ROUNDTRIP
360
113
  0
DICTIONARY
  5
11A
330
3A
100
AcDbDictionary
280
     1
281
     1
  3
ACAD_XREC_ROUNDTRIP
360
11B
  0
DICTIONARY
  5
10E
330
34
100
AcDbDictionary
280
     1
281
     1
  3
ACAD_XREC_ROUNDTRIP
360
10F
  0
DICTIONARY
  5
110
330
35
100
AcDbDictionary
280
     1
281
     1
  3
ACAD_XREC_ROUNDTRIP
360
111
  0
DICTIONARY
  5
120
330
3D
100
AcDbDictionary
280
     1
281
     1
  3
ACAD_XREC_ROUNDTRIP
360
121
  0
DICTIONARY
  5
118
330
39
100
AcDbDictionary
280
     1
281
     1
  3
ACAD_XREC_ROUNDTRIP
360
119
  0
DICTIONARY
  5
FC
330
2B
100
AcDbDictionary
280
     1
281
     1
  3
ACAD_XREC_ROUNDTRIP
360
FD
  0
DICTIONARY
  5
FE
330
2C
100
AcDbDictionary
280
     1
281
     1
  3
ACAD_XREC_ROUNDTRIP
360
FF
  0
DICTIONARY
  5
100
330
2D
100
AcDbDictionary
280
     1
281
     1
  3
ACAD_XREC_ROUNDTRIP
360
101
  0
DICTIONARY
  5
102
330
2E
100
AcDbDictionary
280
     1
281
     1
  3
ACAD_XREC_ROUNDTRIP
360
103
  0
DICTIONARY
  5
108
330
31
100
AcDbDictionary
280
     1
281
     1
  3
ACAD_XREC_ROUNDTRIP
360
109
  0
DICTIONARY
  5
11C
330
3B
100
AcDbDictionary
280
     1
281
     1
  3
ACAD_XREC_ROUNDTRIP
360
11D
  0
DICTIONARY
  5
116
330
38
100
AcDbDictionary
280
     1
281
     1
  3
ACAD_XREC_ROUNDTRIP
360
117
  0
DICTIONARY
  5
11E
330
3C
100
AcDbDictionary
280
     1
281
     1
  3
ACAD_XREC_ROUNDTRIP
360
11F
  0
DICTIONARY
  5
10C
330
33
100
AcDbDictionary
280
     1
281
     1
  3
ACAD_XREC_ROUNDTRIP
360
10D
  0
DICTIONARY
  5
12A
330
42
100
AcDbDictionary
280
     1
281
     1
  3
ACAD_XREC_ROUNDTRIP
360
12B
  0
DICTIONARY
  5
128
330
41
100
AcDbDictionary
280
     1
281
     1
  3
ACAD_XREC_ROUNDTRIP
360
129
  0
DICTIONARY
  5
122
330
3E
100
AcDbDictionary
280
     1
281
     1
  3
ACAD_XREC_ROUNDTRIP
360
123
  0
DICTIONARY
  5
124
330
3F
100
AcDbDictionary
280
     1
281
     1
  3
ACAD_XREC_ROUNDTRIP
360
125
  0
DICTIONARY
  5
114
330
37
100
AcDbDictionary
280
     1
281
     1
  3
ACAD_XREC_ROUNDTRIP
360
115
  0
DICTIONARY
  5
106
330
30
100
AcDbDictionary
280
     1
281
     1
  3
ACAD_XREC_ROUNDTRIP
360
107
  0
DICTIONARY
  5
126
330
40
100
AcDbDictionary
280
     1
281
     1
  3
ACAD_XREC_ROUNDTRIP
360
127
  0
XRECORD
  5
12F
102
{ACAD_REACTORS
330
12E
102
}
330
12E
100
AcDbXrecord
280
     1
102
MATERIAL
148
0.0
149
0.0
149
0.0
 93
        0
 94
      127
282
     0
 72
     1
 77
     1
171
     1
175
     1
179
     1
273
     0
  0
XRECORD
  5
12D
102
{ACAD_REACTORS
330
12C
102
}
330
12C
100
AcDbXrecord
280
     1
102
MATERIAL
148
0.0
149
0.0
149
0.0
 93
        0
 94
      127
282
     0
 72
     1
 77
     1
171
     1
175
     1
179
     1
273
     0
  0
XRECORD
  5
131
102
{ACAD_REACTORS
330
130
102
}
330
130
100
AcDbXrecord
280
     1
102
MATERIAL
148
0.0
149
0.0
149
0.0
 93
        0
 94
      127
282
     0
 72
     1
 77
     1
171
     1
175
     1
179
     1
273
     0
  0
XRECORD
  5
134
102
{ACAD_REACTORS
330
133
102
}
330
133
100
AcDbXrecord
280
     1
102
ACAD_ROUNDTRIP_2010_MLEADER_STYLE
  0
XRECORD
  5
105
102
{ACAD_REACTORS
330
104
102
}
330
104
100
AcDbXrecord
280
     1
102
RTVSPropertyOp0
 70
     1
102
RTVSPropertyOp1
 70
     1
102
RTVSPropertyOp2
 70
     1
102
RTVSPropertyOp3
 70
     1
102
RTVSPropertyOp4
 70
     1
102
RTVSPropertyOp5
 70
     1
102
RTVSPropertyOp6
 70
     1
102
RTVSPropertyOp7
 70
     1
102
RTVSPropertyOp8
 70
     1
102
RTVSPropertyOp9
 70
     1
102
RTVSPropertyOp10
 70
     1
102
RTVSPropertyOp11
 70
     1
102
RTVSPropertyOp12
 70
     1
102
RTVSPropertyOp13
 70
     1
102
RTVSPropertyOp14
 70
     1
102
RTVSPropertyOp15
 70
     1
102
RTVSPropertyOp16
 70
     1
102
RTVSPropertyOp17
 70
     1
102
RTVSPropertyOp18
 70
     1
102
RTVSPropertyOp19
 70
     1
102
RTVSPropertyOp20
 70
     1
102
RTVSPropertyOp21
 70
     1
102
RTVSPropertyOp22
 70
     1
102
RTVSPropertyOp23
 70
     1
102
RTVSPropertyOp24
 70
     1
102
RTVSPropertyOp25
 70
     1
102
RTVSPropertyOp26
 70
     1
102
RTVSPropertyOp27
 70
     1
102
RTVSPropertyOp28
 70
     1
102
RTVSPropertyOp29
 70
     1
102
RTVSPropertyOp30
 70
     1
102
RTVSPropertyOp31
 70
     1
102
RTVSPropertyOp32
 70
     1
102
RTVSPropertyOp33
 70
     1
102
RTVSPropertyOp34
 70
     1
102
RTVSPropertyOp35
 70
     1
102
RTVSPropertyOp36
 70
     1
102
RTVSPropertyOp37
 70
     1
102
RTVSPropertyOp38
 70
     1
102
RTVSPropertyOp39
 70
     1
102
RTVSPropertyOp40
 70
     1
102
RTVSPropertyOp41
 70
     1
102
RTVSPropertyOp42
 70
     1
102
RTVSPropertyOp43
 70
     1
102
RTVSPropertyOp44
 70
     1
102
RTVSPropertyOp45
 70
     1
102
RTVSPropertyOp46
 70
     1
102
RTVSPropertyOp47
 70
     1
102
RTVSPropertyOp48
 70
     1
102
RTVSPropertyOp49
 70
     1
102
RTVSPropertyOp50
 70
     1
102
RTVSPropertyOp51
 70
     0
102
RTVSPropertyOp52
 70
     0
102
RTVSPropertyOp53
 70
     1
102
RTVSPropertyOp54
 70
     1
102
RTVSPropertyOp55
 70
     1
102
RTVSPropertyOp56
 70
     1
102
RTVSPropertyOp57
 70
     1
102
RTVSPost2010Prop28
280
     1
102
RTVSPost2010PropOp28
 70
     1
102
RTVSPost2010Prop29
280
     1
102
RTVSPost2010PropOp29
 70
     1
102
RTVSPost2010Prop30
280
     0
102
RTVSPost2010PropOp30
 70
     1
102
RTVSPost2010Prop31
280
     0
102
RTVSPost2010PropOp31
 70
     1
102
RTVSPost2010Prop32
280
     0
102
RTVSPost2010PropOp32
 70
     1
102
RTVSPost2010Prop33
280
     0
102
RTVSPost2010PropOp33
 70
     1
102
RTVSPost2010Prop34
280
     0
102
RTVSPost2010PropOp34
 70
     1
102
RTVSPost2010Prop35
280
     0
102
RTVSPost2010PropOp35
 70
     1
102
RTVSPost2010Prop36
280
     0
102
RTVSPost2010PropOp36
 70
     1
102
RTVSPost2010Prop37
 90
       50
102
RTVSPost2010PropOp37
 70
     1
102
RTVSPost2010Prop38
140
0.0
102
RTVSPost2010PropOp38
 70
     1
102
RTVSPost2010Prop39
140
1.0
102
RTVSPost2010PropOp39
 70
     1
102
RTVSPost2010Prop40
 90
        0
102
RTVSPost2010PropOp40
 70
     1
102
RTVSPost2010Prop41ColorIndex
 90
       18
102
RTVSPost2010Prop41ColorRGB
 90
        0
102
RTVSPost2010PropOp41
 70
     1
102
RTVSPost2010Prop42
 90
       50
102
RTVSPost2010PropOp42
 70
     1
102
RTVSPost2010Prop43
 90
        3
102
RTVSPost2010PropOp43
 70
     1
102
RTVSPost2010Prop44ColorIndex
 90
        5
102
RTVSPost2010Prop44ColorRGB
 90
      255
102
RTVSPost2010PropOp44
 70
     1
102
RTVSPost2010Prop45
280
     0
102
RTVSPost2010PropOp45
 70
     1
102
RTVSPost2010Prop46
 90
       50
102
RTVSPost2010PropOp46
 70
     1
102
RTVSPost2010Prop47
 90
       50
102
RTVSPost2010PropOp47
 70
     1
102
RTVSPost2010Prop48
 90
       50
102
RTVSPost2010PropOp48
 70
     1
102
RTVSPost2010Prop49
280
     0
102
RTVSPost2010PropOp49
 70
     1
102
RTVSPost2010Prop50
 90
       50
102
RTVSPost2010PropOp50
 70
     1
102
RTVSPost2010Prop51ColorIndex
 90
      256
102
RTVSPost2010Prop51ColorRGB
 90
-16777216
102
RTVSPost2010PropOp51
 70
     0
102
RTVSPost2010Prop52
140
1.0
102
RTVSPost2010PropOp52
 70
     0
102
RTVSPost2010Prop53
 90
        2
102
RTVSPost2010PropOp53
 70
     1
102
RTVSPost2010Prop54
  1
strokes_ogs.tif
102
RTVSPost2010PropOp54
 70
     1
102
RTVSPost2010Prop55
280
     0
102
RTVSPost2010PropOp55
 70
     1
102
RTVSPost2010Prop56
140
1.0
102
RTVSPost2010PropOp56
 70
     1
102
RTVSPost2010Prop57
140
1.0
102
RTVSPost2010PropOp57
 70
     1
  0
XRECORD
  5
10B
102
{ACAD_REACTORS
330
10A
102
}
330
10A
100
AcDbXrecord
280
     1
102
RTVSPropertyOp0
 70
     1
102
RTVSPropertyOp1
 70
     1
102
RTVSPropertyOp2
 70
     1
102
RTVSPropertyOp3
 70
     1
102
RTVSPropertyOp4
 70
     1
102
RTVSPropertyOp5
 70
     1
102
RTVSPropertyOp6
 70
     1
102
RTVSPropertyOp7
 70
     1
102
RTVSPropertyOp8
 70
     1
102
RTVSPropertyOp9
 70
     1
102
RTVSPropertyOp10
 70
     1
102
RTVSPropertyOp11
 70
     1
102
RTVSPropertyOp12
 70
     1
102
RTVSPropertyOp13
 70
     1
102
RTVSPropertyOp14
 70
     1
102
RTVSPropertyOp15
 70
     1
102
RTVSPropertyOp16
 70
     1
102
RTVSPropertyOp17
 70
     1
102
RTVSPropertyOp18
 70
     1
102
RTVSPropertyOp19
 70
     1
102
RTVSPropertyOp20
 70
     1
102
RTVSPropertyOp21
 70
     1
102
RTVSPropertyOp22
 70
     1
102
RTVSPropertyOp23
 70
     1
102
RTVSPropertyOp24
 70
     1
102
RTVSPropertyOp25
 70
     1
102
RTVSPropertyOp26
 70
     1
102
RTVSPropertyOp27
 70
     1
102
RTVSPropertyOp28
 70
     1
102
RTVSPropertyOp29
 70
     1
102
RTVSPropertyOp30
 70
     1
102
RTVSPropertyOp31
 70
     1
102
RTVSPropertyOp32
 70
     1
102
RTVSPropertyOp33
 70
     1
102
RTVSPropertyOp34
 70
     1
102
RTVSPropertyOp35
 70
     1
102
RTVSPropertyOp36
 70
     1
102
RTVSPropertyOp37
 70
     1
102
RTVSPropertyOp38
 70
     1
102
RTVSPropertyOp39
 70
     1
102
RTVSPropertyOp40
 70
     1
102
RTVSPropertyOp41
 70
     1
102
RTVSPropertyOp42
 70
     1
102
RTVSPropertyOp43
 70
     1
102
RTVSPropertyOp44
 70
     1
102
RTVSPropertyOp45
 70
     1
102
RTVSPropertyOp46
 70
     1
102
RTVSPropertyOp47
 70
     1
102
RTVSPropertyOp48
 70
     1
102
RTVSPropertyOp49
 70
     1
102
RTVSPropertyOp50
 70
     1
102
RTVSPropertyOp51
 70
     0
102
RTVSPropertyOp52
 70
     0
102
RTVSPropertyOp53
 70
     1
102
RTVSPropertyOp54
 70
     1
102
RTVSPropertyOp55
 70
     1
102
RTVSPropertyOp56
 70
     1
102
RTVSPropertyOp57
 70
     1
102
RTVSPost2010Prop28
280
     0
102
RTVSPost2010PropOp28
 70
     1
102
RTVSPost2010Prop29
280
     1
102
RTVSPost2010PropOp29
 70
     1
102
RTVSPost2010Prop30
280
     1
102
RTVSPost2010PropOp30
 70
     1
102
RTVSPost2010Prop31
280
     0
102
RTVSPost2010PropOp31
 70
     1
102
RTVSPost2010Prop32
280
     0
102
RTVSPost2010PropOp32
 70
     1
102
RTVSPost2010Prop33
280
     0
102
RTVSPost2010PropOp33
 70
     1
102
RTVSPost2010Prop34
280
     0
102
RTVSPost2010PropOp34
 70
     1
102
RTVSPost2010Prop35
280
     0
102
RTVSPost2010PropOp35
 70
     1
102
RTVSPost2010Prop36
280
     0
102
RTVSPost2010PropOp36
 70
     1
102
RTVSPost2010Prop37
 90
       50
102
RTVSPost2010PropOp37
 70
     1
102
RTVSPost2010Prop38
140
0.0
102
RTVSPost2010PropOp38
 70
     1
102
RTVSPost2010Prop39
140
1.0
102
RTVSPost2010PropOp39
 70
     1
102
RTVSPost2010Prop40
 90
        0
102
RTVSPost2010PropOp40
 70
     1
102
RTVSPost2010Prop41ColorIndex
 90
       18
102
RTVSPost2010Prop41ColorRGB
 90
        0
102
RTVSPost2010PropOp41
 70
     1
102
RTVSPost2010Prop42
 90
       50
102
RTVSPost2010PropOp42
 70
     1
102
RTVSPost2010Prop43
 90
        3
102
RTVSPost2010PropOp43
 70
     1
102
RTVSPost2010Prop44ColorIndex
 90
        5
102
RTVSPost2010Prop44ColorRGB
 90
      255
102
RTVSPost2010PropOp44
 70
     1
102
RTVSPost2010Prop45
280
     0
102
RTVSPost2010PropOp45
 70
     1
102
RTVSPost2010Prop46
 90
       50
102
RTVSPost2010PropOp46
 70
     1
102
RTVSPost2010Prop47
 90
       50
102
RTVSPost2010PropOp47
 70
     1
102
RTVSPost2010Prop48
 90
       50
102
RTVSPost2010PropOp48
 70
     1
102
RTVSPost2010Prop49
280
     0
102
RTVSPost2010PropOp49
 70
     1
102
RTVSPost2010Prop50
 90
       50
102
RTVSPost2010PropOp50
 70
     1
102
RTVSPost2010Prop51ColorIndex
 90
      256
102
RTVSPost2010Prop51ColorRGB
 90
-16777216
102
RTVSPost2010PropOp51
 70
     0
102
RTVSPost2010Prop52
140
1.0
102
RTVSPost2010PropOp52
 70
     0
102
RTVSPost2010Prop53
 90
        2
102
RTVSPost2010PropOp53
 70
     1
102
RTVSPost2010Prop54
  1
strokes_ogs.tif
102
RTVSPost2010PropOp54
 70
     1
102
RTVSPost2010Prop55
280
     0
102
RTVSPost2010PropOp55
 70
     1
102
RTVSPost2010Prop56
140
1.0
102
RTVSPost2010PropOp56
 70
     1
102
RTVSPost2010Prop57
140
1.0
102
RTVSPost2010PropOp57
 70
     1
  0
XRECORD
  5
113
102
{ACAD_REACTORS
330
112
102
}
330
112
100
AcDbXrecord
280
     1
102
RTVSPropertyOp0
 70
     1
102
RTVSPropertyOp1
 70
     1
102
RTVSPropertyOp2
 70
     1
102
RTVSPropertyOp3
 70
     1
102
RTVSPropertyOp4
 70
     1
102
RTVSPropertyOp5
 70
     1
102
RTVSPropertyOp6
 70
     1
102
RTVSPropertyOp7
 70
     1
102
RTVSPropertyOp8
 70
     1
102
RTVSPropertyOp9
 70
     1
102
RTVSPropertyOp10
 70
     1
102
RTVSPropertyOp11
 70
     1
102
RTVSPropertyOp12
 70
     1
102
RTVSPropertyOp13
 70
     1
102
RTVSPropertyOp14
 70
     1
102
RTVSPropertyOp15
 70
     1
102
RTVSPropertyOp16
 70
     1
102
RTVSPropertyOp17
 70
     1
102
RTVSPropertyOp18
 70
     1
102
RTVSPropertyOp19
 70
     1
102
RTVSPropertyOp20
 70
     1
102
RTVSPropertyOp21
 70
     1
102
RTVSPropertyOp22
 70
     1
102
RTVSPropertyOp23
 70
     1
102
RTVSPropertyOp24
 70
     1
102
RTVSPropertyOp25
 70
     1
102
RTVSPropertyOp26
 70
     1
102
RTVSPropertyOp27
 70
     1
102
RTVSPropertyOp28
 70
     1
102
RTVSPropertyOp29
 70
     1
102
RTVSPropertyOp30
 70
     1
102
RTVSPropertyOp31
 70
     1
102
RTVSPropertyOp32
 70
     1
102
RTVSPropertyOp33
 70
     1
102
RTVSPropertyOp34
 70
     1
102
RTVSPropertyOp35
 70
     1
102
RTVSPropertyOp36
 70
     1
102
RTVSPropertyOp37
 70
     1
102
RTVSPropertyOp38
 70
     1
102
RTVSPropertyOp39
 70
     1
102
RTVSPropertyOp40
 70
     1
102
RTVSPropertyOp41
 70
     1
102
RTVSPropertyOp42
 70
     1
102
RTVSPropertyOp43
 70
     1
102
RTVSPropertyOp44
 70
     1
102
RTVSPropertyOp45
 70
     1
102
RTVSPropertyOp46
 70
     1
102
RTVSPropertyOp47
 70
     1
102
RTVSPropertyOp48
 70
     1
102
RTVSPropertyOp49
 70
     1
102
RTVSPropertyOp50
 70
     1
102
RTVSPropertyOp51
 70
     0
102
RTVSPropertyOp52
 70
     0
102
RTVSPropertyOp53
 70
     1
102
RTVSPropertyOp54
 70
     1
102
RTVSPropertyOp55
 70
     1
102
RTVSPropertyOp56
 70
     1
102
RTVSPropertyOp57
 70
     1
102
RTVSPost2010Prop28
280
     0
102
RTVSPost2010PropOp28
 70
     1
102
RTVSPost2010Prop29
280
     1
102
RTVSPost2010PropOp29
 70
     1
102
RTVSPost2010Prop30
280
     1
102
RTVSPost2010PropOp30
 70
     1
102
RTVSPost2010Prop31
280
     0
102
RTVSPost2010PropOp31
 70
     1
102
RTVSPost2010Prop32
280
     0
102
RTVSPost2010PropOp32
 70
     1
102
RTVSPost2010Prop33
280
     0
102
RTVSPost2010PropOp33
 70
     1
102
RTVSPost2010Prop34
280
     0
102
RTVSPost2010PropOp34
 70
     1
102
RTVSPost2010Prop35
280
     0
102
RTVSPost2010PropOp35
 70
     1
102
RTVSPost2010Prop36
280
     0
102
RTVSPost2010PropOp36
 70
     1
102
RTVSPost2010Prop37
 90
       50
102
RTVSPost2010PropOp37
 70
     1
102
RTVSPost2010Prop38
140
0.0
102
RTVSPost2010PropOp38
 70
     1
102
RTVSPost2010Prop39
140
1.0
102
RTVSPost2010PropOp39
 70
     1
102
RTVSPost2010Prop40
 90
        0
102
RTVSPost2010PropOp40
 70
     1
102
RTVSPost2010Prop41ColorIndex
 90
       18
102
RTVSPost2010Prop41ColorRGB
 90
        0
102
RTVSPost2010PropOp41
 70
     1
102
RTVSPost2010Prop42
 90
       50
102
RTVSPost2010PropOp42
 70
     1
102
RTVSPost2010Prop43
 90
        3
102
RTVSPost2010PropOp43
 70
     1
102
RTVSPost2010Prop44ColorIndex
 90
        5
102
RTVSPost2010Prop44ColorRGB
 90
      255
102
RTVSPost2010PropOp44
 70
     1
102
RTVSPost2010Prop45
280
     0
102
RTVSPost2010PropOp45
 70
     1
102
RTVSPost2010Prop46
 90
       50
102
RTVSPost2010PropOp46
 70
     1
102
RTVSPost2010Prop47
 90
       50
102
RTVSPost2010PropOp47
 70
     1
102
RTVSPost2010Prop48
 90
       50
102
RTVSPost2010PropOp48
 70
     1
102
RTVSPost2010Prop49
280
     0
102
RTVSPost2010PropOp49
 70
     1
102
RTVSPost2010Prop50
 90
       50
102
RTVSPost2010PropOp50
 70
     1
102
RTVSPost2010Prop51ColorIndex
 90
      256
102
RTVSPost2010Prop51ColorRGB
 90
-16777216
102
RTVSPost2010PropOp51
 70
     0
102
RTVSPost2010Prop52
140
1.0
102
RTVSPost2010PropOp52
 70
     0
102
RTVSPost2010Prop53
 90
        2
102
RTVSPost2010PropOp53
 70
     1
102
RTVSPost2010Prop54
  1
strokes_ogs.tif
102
RTVSPost2010PropOp54
 70
     1
102
RTVSPost2010Prop55
280
     0
102
RTVSPost2010PropOp55
 70
     1
102
RTVSPost2010Prop56
140
1.0
102
RTVSPost2010PropOp56
 70
     1
102
RTVSPost2010Prop57
140
1.0
102
RTVSPost2010PropOp57
 70
     1
  0
XRECORD
  5
11B
102
{ACAD_REACTORS
330
11A
102
}
330
11A
100
AcDbXrecord
280
     1
102
RTVSPropertyOp0
 70
     1
102
RTVSPropertyOp1
 70
     1
102
RTVSPropertyOp2
 70
     1
102
RTVSPropertyOp3
 70
     1
102
RTVSPropertyOp4
 70
     1
102
RTVSPropertyOp5
 70
     1
102
RTVSPropertyOp6
 70
     1
102
RTVSPropertyOp7
 70
     1
102
RTVSPropertyOp8
 70
     1
102
RTVSPropertyOp9
 70
     1
102
RTVSPropertyOp10
 70
     1
102
RTVSPropertyOp11
 70
     1
102
RTVSPropertyOp12
 70
     1
102
RTVSPropertyOp13
 70
     1
102
RTVSPropertyOp14
 70
     1
102
RTVSPropertyOp15
 70
     1
102
RTVSPropertyOp16
 70
     1
102
RTVSPropertyOp17
 70
     1
102
RTVSPropertyOp18
 70
     1
102
RTVSPropertyOp19
 70
     1
102
RTVSPropertyOp20
 70
     1
102
RTVSPropertyOp21
 70
     1
102
RTVSPropertyOp22
 70
     1
102
RTVSPropertyOp23
 70
     1
102
RTVSPropertyOp24
 70
     1
102
RTVSPropertyOp25
 70
     1
102
RTVSPropertyOp26
 70
     1
102
RTVSPropertyOp27
 70
     1
102
RTVSPropertyOp28
 70
     1
102
RTVSPropertyOp29
 70
     1
102
RTVSPropertyOp30
 70
     1
102
RTVSPropertyOp31
 70
     1
102
RTVSPropertyOp32
 70
     1
102
RTVSPropertyOp33
 70
     1
102
RTVSPropertyOp34
 70
     1
102
RTVSPropertyOp35
 70
     1
102
RTVSPropertyOp36
 70
     1
102
RTVSPropertyOp37
 70
     1
102
RTVSPropertyOp38
 70
     1
102
RTVSPropertyOp39
 70
     1
102
RTVSPropertyOp40
 70
     1
102
RTVSPropertyOp41
 70
     1
102
RTVSPropertyOp42
 70
     1
102
RTVSPropertyOp43
 70
     1
102
RTVSPropertyOp44
 70
     1
102
RTVSPropertyOp45
 70
     1
102
RTVSPropertyOp46
 70
     1
102
RTVSPropertyOp47
 70
     1
102
RTVSPropertyOp48
 70
     1
102
RTVSPropertyOp49
 70
     1
102
RTVSPropertyOp50
 70
     1
102
RTVSPropertyOp51
 70
     0
102
RTVSPropertyOp52
 70
     0
102
RTVSPropertyOp53
 70
     1
102
RTVSPropertyOp54
 70
     1
102
RTVSPropertyOp55
 70
     1
102
RTVSPropertyOp56
 70
     1
102
RTVSPropertyOp57
 70
     1
102
RTVSPost2010Prop28
280
     0
102
RTVSPost2010PropOp28
 70
     1
102
RTVSPost2010Prop29
280
     1
102
RTVSPost2010PropOp29
 70
     1
102
RTVSPost2010Prop30
280
     1
102
RTVSPost2010PropOp30
 70
     1
102
RTVSPost2010Prop31
280
     0
102
RTVSPost2010PropOp31
 70
     1
102
RTVSPost2010Prop32
280
     0
102
RTVSPost2010PropOp32
 70
     1
102
RTVSPost2010Prop33
280
     0
102
RTVSPost2010PropOp33
 70
     1
102
RTVSPost2010Prop34
280
     0
102
RTVSPost2010PropOp34
 70
     1
102
RTVSPost2010Prop35
280
     0
102
RTVSPost2010PropOp35
 70
     1
102
RTVSPost2010Prop36
280
     0
102
RTVSPost2010PropOp36
 70
     1
102
RTVSPost2010Prop37
 90
       50
102
RTVSPost2010PropOp37
 70
     1
102
RTVSPost2010Prop38
140
0.0
102
RTVSPost2010PropOp38
 70
     1
102
RTVSPost2010Prop39
140
1.0
102
RTVSPost2010PropOp39
 70
     1
102
RTVSPost2010Prop40
 90
        0
102
RTVSPost2010PropOp40
 70
     1
102
RTVSPost2010Prop41ColorIndex
 90
       18
102
RTVSPost2010Prop41ColorRGB
 90
        0
102
RTVSPost2010PropOp41
 70
     1
102
RTVSPost2010Prop42
 90
       50
102
RTVSPost2010PropOp42
 70
     1
102
RTVSPost2010Prop43
 90
        3
102
RTVSPost2010PropOp43
 70
     1
102
RTVSPost2010Prop44ColorIndex
 90
        5
102
RTVSPost2010Prop44ColorRGB
 90
      255
102
RTVSPost2010PropOp44
 70
     1
102
RTVSPost2010Prop45
280
     0
102
RTVSPost2010PropOp45
 70
     1
102
RTVSPost2010Prop46
 90
       50
102
RTVSPost2010PropOp46
 70
     1
102
RTVSPost2010Prop47
 90
       50
102
RTVSPost2010PropOp47
 70
     1
102
RTVSPost2010Prop48
 90
       50
102
RTVSPost2010PropOp48
 70
     1
102
RTVSPost2010Prop49
280
     0
102
RTVSPost2010PropOp49
 70
     1
102
RTVSPost2010Prop50
 90
       50
102
RTVSPost2010PropOp50
 70
     1
102
RTVSPost2010Prop51ColorIndex
 90
      256
102
RTVSPost2010Prop51ColorRGB
 90
-16777216
102
RTVSPost2010PropOp51
 70
     0
102
RTVSPost2010Prop52
140
1.0
102
RTVSPost2010PropOp52
 70
     0
102
RTVSPost2010Prop53
 90
        2
102
RTVSPost2010PropOp53
 70
     1
102
RTVSPost2010Prop54
  1
strokes_ogs.tif
102
RTVSPost2010PropOp54
 70
     1
102
RTVSPost2010Prop55
280
     0
102
RTVSPost2010PropOp55
 70
     1
102
RTVSPost2010Prop56
140
1.0
102
RTVSPost2010PropOp56
 70
     1
102
RTVSPost2010Prop57
140
1.0
102
RTVSPost2010PropOp57
 70
     1
  0
XRECORD
  5
10F
102
{ACAD_REACTORS
330
10E
102
}
330
10E
100
AcDbXrecord
280
     1
102
RTVSPropertyOp0
 70
     1
102
RTVSPropertyOp1
 70
     1
102
RTVSPropertyOp2
 70
     1
102
RTVSPropertyOp3
 70
     1
102
RTVSPropertyOp4
 70
     1
102
RTVSPropertyOp5
 70
     1
102
RTVSPropertyOp6
 70
     1
102
RTVSPropertyOp7
 70
     1
102
RTVSPropertyOp8
 70
     1
102
RTVSPropertyOp9
 70
     1
102
RTVSPropertyOp10
 70
     1
102
RTVSPropertyOp11
 70
     1
102
RTVSPropertyOp12
 70
     1
102
RTVSPropertyOp13
 70
     1
102
RTVSPropertyOp14
 70
     1
102
RTVSPropertyOp15
 70
     1
102
RTVSPropertyOp16
 70
     1
102
RTVSPropertyOp17
 70
     1
102
RTVSPropertyOp18
 70
     1
102
RTVSPropertyOp19
 70
     1
102
RTVSPropertyOp20
 70
     1
102
RTVSPropertyOp21
 70
     1
102
RTVSPropertyOp22
 70
     1
102
RTVSPropertyOp23
 70
     1
102
RTVSPropertyOp24
 70
     1
102
RTVSPropertyOp25
 70
     1
102
RTVSPropertyOp26
 70
     1
102
RTVSPropertyOp27
 70
     1
102
RTVSPropertyOp28
 70
     1
102
RTVSPropertyOp29
 70
     1
102
RTVSPropertyOp30
 70
     1
102
RTVSPropertyOp31
 70
     1
102
RTVSPropertyOp32
 70
     1
102
RTVSPropertyOp33
 70
     1
102
RTVSPropertyOp34
 70
     1
102
RTVSPropertyOp35
 70
     1
102
RTVSPropertyOp36
 70
     1
102
RTVSPropertyOp37
 70
     1
102
RTVSPropertyOp38
 70
     1
102
RTVSPropertyOp39
 70
     1
102
RTVSPropertyOp40
 70
     1
102
RTVSPropertyOp41
 70
     1
102
RTVSPropertyOp42
 70
     1
102
RTVSPropertyOp43
 70
     1
102
RTVSPropertyOp44
 70
     1
102
RTVSPropertyOp45
 70
     1
102
RTVSPropertyOp46
 70
     1
102
RTVSPropertyOp47
 70
     1
102
RTVSPropertyOp48
 70
     1
102
RTVSPropertyOp49
 70
     1
102
RTVSPropertyOp50
 70
     1
102
RTVSPropertyOp51
 70
     0
102
RTVSPropertyOp52
 70
     0
102
RTVSPropertyOp53
 70
     1
102
RTVSPropertyOp54
 70
     1
102
RTVSPropertyOp55
 70
     1
102
RTVSPropertyOp56
 70
     1
102
RTVSPropertyOp57
 70
     1
102
RTVSPost2010Prop28
280
     0
102
RTVSPost2010PropOp28
 70
     1
102
RTVSPost2010Prop29
280
     1
102
RTVSPost2010PropOp29
 70
     1
102
RTVSPost2010Prop30
280
     1
102
RTVSPost2010PropOp30
 70
     1
102
RTVSPost2010Prop31
280
     0
102
RTVSPost2010PropOp31
 70
     1
102
RTVSPost2010Prop32
280
     0
102
RTVSPost2010PropOp32
 70
     1
102
RTVSPost2010Prop33
280
     0
102
RTVSPost2010PropOp33
 70
     1
102
RTVSPost2010Prop34
280
     0
102
RTVSPost2010PropOp34
 70
     1
102
RTVSPost2010Prop35
280
     0
102
RTVSPost2010PropOp35
 70
     1
102
RTVSPost2010Prop36
280
     0
102
RTVSPost2010PropOp36
 70
     1
102
RTVSPost2010Prop37
 90
       50
102
RTVSPost2010PropOp37
 70
     1
102
RTVSPost2010Prop38
140
0.0
102
RTVSPost2010PropOp38
 70
     1
102
RTVSPost2010Prop39
140
1.0
102
RTVSPost2010PropOp39
 70
     1
102
RTVSPost2010Prop40
 90
        0
102
RTVSPost2010PropOp40
 70
     1
102
RTVSPost2010Prop41ColorIndex
 90
       18
102
RTVSPost2010Prop41ColorRGB
 90
        0
102
RTVSPost2010PropOp41
 70
     1
102
RTVSPost2010Prop42
 90
       50
102
RTVSPost2010PropOp42
 70
     1
102
RTVSPost2010Prop43
 90
        3
102
RTVSPost2010PropOp43
 70
     1
102
RTVSPost2010Prop44ColorIndex
 90
        5
102
RTVSPost2010Prop44ColorRGB
 90
      255
102
RTVSPost2010PropOp44
 70
     1
102
RTVSPost2010Prop45
280
     0
102
RTVSPost2010PropOp45
 70
     1
102
RTVSPost2010Prop46
 90
       50
102
RTVSPost2010PropOp46
 70
     1
102
RTVSPost2010Prop47
 90
       50
102
RTVSPost2010PropOp47
 70
     1
102
RTVSPost2010Prop48
 90
       50
102
RTVSPost2010PropOp48
 70
     1
102
RTVSPost2010Prop49
280
     0
102
RTVSPost2010PropOp49
 70
     1
102
RTVSPost2010Prop50
 90
       50
102
RTVSPost2010PropOp50
 70
     1
102
RTVSPost2010Prop51ColorIndex
 90
      256
102
RTVSPost2010Prop51ColorRGB
 90
-16777216
102
RTVSPost2010PropOp51
 70
     0
102
RTVSPost2010Prop52
140
1.0
102
RTVSPost2010PropOp52
 70
     0
102
RTVSPost2010Prop53
 90
        2
102
RTVSPost2010PropOp53
 70
     1
102
RTVSPost2010Prop54
  1
strokes_ogs.tif
102
RTVSPost2010PropOp54
 70
     1
102
RTVSPost2010Prop55
280
     0
102
RTVSPost2010PropOp55
 70
     1
102
RTVSPost2010Prop56
140
1.0
102
RTVSPost2010PropOp56
 70
     1
102
RTVSPost2010Prop57
140
1.0
102
RTVSPost2010PropOp57
 70
     1
  0
XRECORD
  5
111
102
{ACAD_REACTORS
330
110
102
}
330
110
100
AcDbXrecord
280
     1
102
RTVSPropertyOp0
 70
     1
102
RTVSPropertyOp1
 70
     1
102
RTVSPropertyOp2
 70
     1
102
RTVSPropertyOp3
 70
     1
102
RTVSPropertyOp4
 70
     1
102
RTVSPropertyOp5
 70
     1
102
RTVSPropertyOp6
 70
     1
102
RTVSPropertyOp7
 70
     1
102
RTVSPropertyOp8
 70
     1
102
RTVSPropertyOp9
 70
     1
102
RTVSPropertyOp10
 70
     1
102
RTVSPropertyOp11
 70
     1
102
RTVSPropertyOp12
 70
     1
102
RTVSPropertyOp13
 70
     1
102
RTVSPropertyOp14
 70
     1
102
RTVSPropertyOp15
 70
     1
102
RTVSPropertyOp16
 70
     1
102
RTVSPropertyOp17
 70
     1
102
RTVSPropertyOp18
 70
     1
102
RTVSPropertyOp19
 70
     1
102
RTVSPropertyOp20
 70
     1
102
RTVSPropertyOp21
 70
     1
102
RTVSPropertyOp22
 70
     1
102
RTVSPropertyOp23
 70
     1
102
RTVSPropertyOp24
 70
     1
102
RTVSPropertyOp25
 70
     1
102
RTVSPropertyOp26
 70
     1
102
RTVSPropertyOp27
 70
     1
102
RTVSPropertyOp28
 70
     1
102
RTVSPropertyOp29
 70
     1
102
RTVSPropertyOp30
 70
     1
102
RTVSPropertyOp31
 70
     1
102
RTVSPropertyOp32
 70
     1
102
RTVSPropertyOp33
 70
     1
102
RTVSPropertyOp34
 70
     1
102
RTVSPropertyOp35
 70
     1
102
RTVSPropertyOp36
 70
     1
102
RTVSPropertyOp37
 70
     1
102
RTVSPropertyOp38
 70
     1
102
RTVSPropertyOp39
 70
     1
102
RTVSPropertyOp40
 70
     1
102
RTVSPropertyOp41
 70
     1
102
RTVSPropertyOp42
 70
     1
102
RTVSPropertyOp43
 70
     1
102
RTVSPropertyOp44
 70
     1
102
RTVSPropertyOp45
 70
     1
102
RTVSPropertyOp46
 70
     1
102
RTVSPropertyOp47
 70
     1
102
RTVSPropertyOp48
 70
     1
102
RTVSPropertyOp49
 70
     1
102
RTVSPropertyOp50
 70
     1
102
RTVSPropertyOp51
 70
     0
102
RTVSPropertyOp52
 70
     0
102
RTVSPropertyOp53
 70
     1
102
RTVSPropertyOp54
 70
     1
102
RTVSPropertyOp55
 70
     1
102
RTVSPropertyOp56
 70
     1
102
RTVSPropertyOp57
 70
     1
102
RTVSPost2010Prop28
280
     0
102
RTVSPost2010PropOp28
 70
     1
102
RTVSPost2010Prop29
280
     1
102
RTVSPost2010PropOp29
 70
     1
102
RTVSPost2010Prop30
280
     1
102
RTVSPost2010PropOp30
 70
     1
102
RTVSPost2010Prop31
280
     0
102
RTVSPost2010PropOp31
 70
     1
102
RTVSPost2010Prop32
280
     0
102
RTVSPost2010PropOp32
 70
     1
102
RTVSPost2010Prop33
280
     0
102
RTVSPost2010PropOp33
 70
     1
102
RTVSPost2010Prop34
280
     0
102
RTVSPost2010PropOp34
 70
     1
102
RTVSPost2010Prop35
280
     0
102
RTVSPost2010PropOp35
 70
     1
102
RTVSPost2010Prop36
280
     0
102
RTVSPost2010PropOp36
 70
     1
102
RTVSPost2010Prop37
 90
       50
102
RTVSPost2010PropOp37
 70
     1
102
RTVSPost2010Prop38
140
0.0
102
RTVSPost2010PropOp38
 70
     1
102
RTVSPost2010Prop39
140
1.0
102
RTVSPost2010PropOp39
 70
     1
102
RTVSPost2010Prop40
 90
        0
102
RTVSPost2010PropOp40
 70
     1
102
RTVSPost2010Prop41ColorIndex
 90
       18
102
RTVSPost2010Prop41ColorRGB
 90
        0
102
RTVSPost2010PropOp41
 70
     1
102
RTVSPost2010Prop42
 90
       50
102
RTVSPost2010PropOp42
 70
     1
102
RTVSPost2010Prop43
 90
        3
102
RTVSPost2010PropOp43
 70
     1
102
RTVSPost2010Prop44ColorIndex
 90
        5
102
RTVSPost2010Prop44ColorRGB
 90
      255
102
RTVSPost2010PropOp44
 70
     1
102
RTVSPost2010Prop45
280
     0
102
RTVSPost2010PropOp45
 70
     1
102
RTVSPost2010Prop46
 90
       50
102
RTVSPost2010PropOp46
 70
     1
102
RTVSPost2010Prop47
 90
       50
102
RTVSPost2010PropOp47
 70
     1
102
RTVSPost2010Prop48
 90
       50
102
RTVSPost2010PropOp48
 70
     1
102
RTVSPost2010Prop49
280
     0
102
RTVSPost2010PropOp49
 70
     1
102
RTVSPost2010Prop50
 90
       50
102
RTVSPost2010PropOp50
 70
     1
102
RTVSPost2010Prop51ColorIndex
 90
      256
102
RTVSPost2010Prop51ColorRGB
 90
-16777216
102
RTVSPost2010PropOp51
 70
     0
102
RTVSPost2010Prop52
140
1.0
102
RTVSPost2010PropOp52
 70
     0
102
RTVSPost2010Prop53
 90
        2
102
RTVSPost2010PropOp53
 70
     1
102
RTVSPost2010Prop54
  1
strokes_ogs.tif
102
RTVSPost2010PropOp54
 70
     1
102
RTVSPost2010Prop55
280
     0
102
RTVSPost2010PropOp55
 70
     1
102
RTVSPost2010Prop56
140
1.0
102
RTVSPost2010PropOp56
 70
     1
102
RTVSPost2010Prop57
140
1.0
102
RTVSPost2010PropOp57
 70
     1
  0
XRECORD
  5
121
102
{ACAD_REACTORS
330
120
102
}
330
120
100
AcDbXrecord
280
     1
102
RTVSPropertyOp0
 70
     0
102
RTVSPropertyOp1
 70
     0
102
RTVSPropertyOp2
 70
     0
102
RTVSPropertyOp3
 70
     0
102
RTVSPropertyOp4
 70
     0
102
RTVSPropertyOp5
 70
     0
102
RTVSPropertyOp6
 70
     0
102
RTVSPropertyOp7
 70
     0
102
RTVSPropertyOp8
 70
     0
102
RTVSPropertyOp9
 70
     0
102
RTVSPropertyOp10
 70
     0
102
RTVSPropertyOp11
 70
     0
102
RTVSPropertyOp12
 70
     0
102
RTVSPropertyOp13
 70
     0
102
RTVSPropertyOp14
 70
     2
102
RTVSPropertyOp15
 70
     0
102
RTVSPropertyOp16
 70
     0
102
RTVSPropertyOp17
 70
     0
102
RTVSPropertyOp18
 70
     0
102
RTVSPropertyOp19
 70
     0
102
RTVSPropertyOp20
 70
     0
102
RTVSPropertyOp21
 70
     0
102
RTVSPropertyOp22
 70
     0
102
RTVSPropertyOp23
 70
     0
102
RTVSPropertyOp24
 70
     0
102
RTVSPropertyOp25
 70
     0
102
RTVSPropertyOp26
 70
     0
102
RTVSPropertyOp27
 70
     0
102
RTVSPropertyOp28
 70
     0
102
RTVSPropertyOp29
 70
     0
102
RTVSPropertyOp30
 70
     0
102
RTVSPropertyOp31
 70
     0
102
RTVSPropertyOp32
 70
     0
102
RTVSPropertyOp33
 70
     0
102
RTVSPropertyOp34
 70
     0
102
RTVSPropertyOp35
 70
     0
102
RTVSPropertyOp36
 70
     0
102
RTVSPropertyOp37
 70
     0
102
RTVSPropertyOp38
 70
     0
102
RTVSPropertyOp39
 70
     0
102
RTVSPropertyOp40
 70
     0
102
RTVSPropertyOp41
 70
     0
102
RTVSPropertyOp42
 70
     0
102
RTVSPropertyOp43
 70
     0
102
RTVSPropertyOp44
 70
     0
102
RTVSPropertyOp45
 70
     0
102
RTVSPropertyOp46
 70
     0
102
RTVSPropertyOp47
 70
     0
102
RTVSPropertyOp48
 70
     0
102
RTVSPropertyOp49
 70
     0
102
RTVSPropertyOp50
 70
     0
102
RTVSPropertyOp51
 70
     0
102
RTVSPropertyOp52
 70
     0
102
RTVSPropertyOp53
 70
     0
102
RTVSPropertyOp54
 70
     0
102
RTVSPropertyOp55
 70
     0
102
RTVSPropertyOp56
 70
     0
102
RTVSPropertyOp57
 70
     0
102
RTVSPost2010Prop28
280
     0
102
RTVSPost2010PropOp28
 70
     0
102
RTVSPost2010Prop29
280
     1
102
RTVSPost2010PropOp29
 70
     0
102
RTVSPost2010Prop30
280
     1
102
RTVSPost2010PropOp30
 70
     0
102
RTVSPost2010Prop31
280
     0
102
RTVSPost2010PropOp31
 70
     0
102
RTVSPost2010Prop32
280
     0
102
RTVSPost2010PropOp32
 70
     0
102
RTVSPost2010Prop33
280
     0
102
RTVSPost2010PropOp33
 70
     0
102
RTVSPost2010Prop34
280
     0
102
RTVSPost2010PropOp34
 70
     0
102
RTVSPost2010Prop35
280
     0
102
RTVSPost2010PropOp35
 70
     0
102
RTVSPost2010Prop36
280
     0
102
RTVSPost2010PropOp36
 70
     0
102
RTVSPost2010Prop37
 90
       50
102
RTVSPost2010PropOp37
 70
     0
102
RTVSPost2010Prop38
140
0.0
102
RTVSPost2010PropOp38
 70
     0
102
RTVSPost2010Prop39
140
1.0
102
RTVSPost2010PropOp39
 70
     0
102
RTVSPost2010Prop40
 90
        0
102
RTVSPost2010PropOp40
 70
     0
102
RTVSPost2010Prop41ColorIndex
 90
       18
102
RTVSPost2010Prop41ColorRGB
 90
        0
102
RTVSPost2010PropOp41
 70
     0
102
RTVSPost2010Prop42
 90
       50
102
RTVSPost2010PropOp42
 70
     0
102
RTVSPost2010Prop43
 90
        3
102
RTVSPost2010PropOp43
 70
     0
102
RTVSPost2010Prop44ColorIndex
 90
        5
102
RTVSPost2010Prop44ColorRGB
 90
      255
102
RTVSPost2010PropOp44
 70
     0
102
RTVSPost2010Prop45
280
     0
102
RTVSPost2010PropOp45
 70
     0
102
RTVSPost2010Prop46
 90
       50
102
RTVSPost2010PropOp46
 70
     0
102
RTVSPost2010Prop47
 90
       50
102
RTVSPost2010PropOp47
 70
     0
102
RTVSPost2010Prop48
 90
       50
102
RTVSPost2010PropOp48
 70
     0
102
RTVSPost2010Prop49
280
     0
102
RTVSPost2010PropOp49
 70
     0
102
RTVSPost2010Prop50
 90
       50
102
RTVSPost2010PropOp50
 70
     0
102
RTVSPost2010Prop51ColorIndex
 90
      256
102
RTVSPost2010Prop51ColorRGB
 90
-16777216
102
RTVSPost2010PropOp51
 70
     0
102
RTVSPost2010Prop52
140
1.0
102
RTVSPost2010PropOp52
 70
     0
102
RTVSPost2010Prop53
 90
        2
102
RTVSPost2010PropOp53
 70
     0
102
RTVSPost2010Prop54
  1
strokes_ogs.tif
102
RTVSPost2010PropOp54
 70
     0
102
RTVSPost2010Prop55
280
     0
102
RTVSPost2010PropOp55
 70
     0
102
RTVSPost2010Prop56
140
1.0
102
RTVSPost2010PropOp56
 70
     0
102
RTVSPost2010Prop57
140
1.0
102
RTVSPost2010PropOp57
 70
     0
  0
XRECORD
  5
119
102
{ACAD_REACTORS
330
118
102
}
330
118
100
AcDbXrecord
280
     1
102
RTVSPropertyOp0
 70
     1
102
RTVSPropertyOp1
 70
     1
102
RTVSPropertyOp2
 70
     1
102
RTVSPropertyOp3
 70
     1
102
RTVSPropertyOp4
 70
     1
102
RTVSPropertyOp5
 70
     1
102
RTVSPropertyOp6
 70
     1
102
RTVSPropertyOp7
 70
     1
102
RTVSPropertyOp8
 70
     1
102
RTVSPropertyOp9
 70
     1
102
RTVSPropertyOp10
 70
     1
102
RTVSPropertyOp11
 70
     1
102
RTVSPropertyOp12
 70
     1
102
RTVSPropertyOp13
 70
     1
102
RTVSPropertyOp14
 70
     1
102
RTVSPropertyOp15
 70
     1
102
RTVSPropertyOp16
 70
     1
102
RTVSPropertyOp17
 70
     1
102
RTVSPropertyOp18
 70
     1
102
RTVSPropertyOp19
 70
     1
102
RTVSPropertyOp20
 70
     1
102
RTVSPropertyOp21
 70
     1
102
RTVSPropertyOp22
 70
     1
102
RTVSPropertyOp23
 70
     1
102
RTVSPropertyOp24
 70
     1
102
RTVSPropertyOp25
 70
     1
102
RTVSPropertyOp26
 70
     1
102
RTVSPropertyOp27
 70
     1
102
RTVSPropertyOp28
 70
     1
102
RTVSPropertyOp29
 70
     1
102
RTVSPropertyOp30
 70
     1
102
RTVSPropertyOp31
 70
     1
102
RTVSPropertyOp32
 70
     1
102
RTVSPropertyOp33
 70
     1
102
RTVSPropertyOp34
 70
     1
102
RTVSPropertyOp35
 70
     1
102
RTVSPropertyOp36
 70
     1
102
RTVSPropertyOp37
 70
     1
102
RTVSPropertyOp38
 70
     1
102
RTVSPropertyOp39
 70
     1
102
RTVSPropertyOp40
 70
     1
102
RTVSPropertyOp41
 70
     1
102
RTVSPropertyOp42
 70
     1
102
RTVSPropertyOp43
 70
     1
102
RTVSPropertyOp44
 70
     1
102
RTVSPropertyOp45
 70
     1
102
RTVSPropertyOp46
 70
     1
102
RTVSPropertyOp47
 70
     1
102
RTVSPropertyOp48
 70
     1
102
RTVSPropertyOp49
 70
     1
102
RTVSPropertyOp50
 70
     1
102
RTVSPropertyOp51
 70
     0
102
RTVSPropertyOp52
 70
     0
102
RTVSPropertyOp53
 70
     1
102
RTVSPropertyOp54
 70
     1
102
RTVSPropertyOp55
 70
     1
102
RTVSPropertyOp56
 70
     1
102
RTVSPropertyOp57
 70
     1
102
RTVSPost2010Prop28
280
     0
102
RTVSPost2010PropOp28
 70
     1
102
RTVSPost2010Prop29
280
     1
102
RTVSPost2010PropOp29
 70
     1
102
RTVSPost2010Prop30
280
     1
102
RTVSPost2010PropOp30
 70
     1
102
RTVSPost2010Prop31
280
     0
102
RTVSPost2010PropOp31
 70
     1
102
RTVSPost2010Prop32
280
     0
102
RTVSPost2010PropOp32
 70
     1
102
RTVSPost2010Prop33
280
     0
102
RTVSPost2010PropOp33
 70
     1
102
RTVSPost2010Prop34
280
     0
102
RTVSPost2010PropOp34
 70
     1
102
RTVSPost2010Prop35
280
     0
102
RTVSPost2010PropOp35
 70
     1
102
RTVSPost2010Prop36
280
     0
102
RTVSPost2010PropOp36
 70
     1
102
RTVSPost2010Prop37
 90
       50
102
RTVSPost2010PropOp37
 70
     1
102
RTVSPost2010Prop38
140
0.0
102
RTVSPost2010PropOp38
 70
     1
102
RTVSPost2010Prop39
140
1.0
102
RTVSPost2010PropOp39
 70
     1
102
RTVSPost2010Prop40
 90
        0
102
RTVSPost2010PropOp40
 70
     1
102
RTVSPost2010Prop41ColorIndex
 90
       18
102
RTVSPost2010Prop41ColorRGB
 90
        0
102
RTVSPost2010PropOp41
 70
     1
102
RTVSPost2010Prop42
 90
       50
102
RTVSPost2010PropOp42
 70
     1
102
RTVSPost2010Prop43
 90
        3
102
RTVSPost2010PropOp43
 70
     1
102
RTVSPost2010Prop44ColorIndex
 90
        5
102
RTVSPost2010Prop44ColorRGB
 90
      255
102
RTVSPost2010PropOp44
 70
     1
102
RTVSPost2010Prop45
280
     0
102
RTVSPost2010PropOp45
 70
     1
102
RTVSPost2010Prop46
 90
       50
102
RTVSPost2010PropOp46
 70
     1
102
RTVSPost2010Prop47
 90
       50
102
RTVSPost2010PropOp47
 70
     1
102
RTVSPost2010Prop48
 90
       50
102
RTVSPost2010PropOp48
 70
     1
102
RTVSPost2010Prop49
280
     0
102
RTVSPost2010PropOp49
 70
     1
102
RTVSPost2010Prop50
 90
       50
102
RTVSPost2010PropOp50
 70
     1
102
RTVSPost2010Prop51ColorIndex
 90
      256
102
RTVSPost2010Prop51ColorRGB
 90
-16777216
102
RTVSPost2010PropOp51
 70
     0
102
RTVSPost2010Prop52
140
1.0
102
RTVSPost2010PropOp52
 70
     0
102
RTVSPost2010Prop53
 90
        2
102
RTVSPost2010PropOp53
 70
     1
102
RTVSPost2010Prop54
  1
strokes_ogs.tif
102
RTVSPost2010PropOp54
 70
     1
102
RTVSPost2010Prop55
280
     0
102
RTVSPost2010PropOp55
 70
     1
102
RTVSPost2010Prop56
140
1.0
102
RTVSPost2010PropOp56
 70
     1
102
RTVSPost2010Prop57
140
1.0
102
RTVSPost2010PropOp57
 70
     1
  0
XRECORD
  5
FD
102
{ACAD_REACTORS
330
FC
102
}
330
FC
100
AcDbXrecord
280
     1
102
RTVSPropertyOp0
 70
     1
102
RTVSPropertyOp1
 70
     1
102
RTVSPropertyOp2
 70
     1
102
RTVSPropertyOp3
 70
     1
102
RTVSPropertyOp4
 70
     1
102
RTVSPropertyOp5
 70
     1
102
RTVSPropertyOp6
 70
     1
102
RTVSPropertyOp7
 70
     1
102
RTVSPropertyOp8
 70
     1
102
RTVSPropertyOp9
 70
     1
102
RTVSPropertyOp10
 70
     1
102
RTVSPropertyOp11
 70
     1
102
RTVSPropertyOp12
 70
     1
102
RTVSPropertyOp13
 70
     1
102
RTVSPropertyOp14
 70
     1
102
RTVSPropertyOp15
 70
     1
102
RTVSPropertyOp16
 70
     1
102
RTVSPropertyOp17
 70
     1
102
RTVSPropertyOp18
 70
     1
102
RTVSPropertyOp19
 70
     1
102
RTVSPropertyOp20
 70
     1
102
RTVSPropertyOp21
 70
     1
102
RTVSPropertyOp22
 70
     1
102
RTVSPropertyOp23
 70
     1
102
RTVSPropertyOp24
 70
     1
102
RTVSPropertyOp25
 70
     1
102
RTVSPropertyOp26
 70
     1
102
RTVSPropertyOp27
 70
     1
102
RTVSPropertyOp28
 70
     1
102
RTVSPropertyOp29
 70
     1
102
RTVSPropertyOp30
 70
     1
102
RTVSPropertyOp31
 70
     1
102
RTVSPropertyOp32
 70
     1
102
RTVSPropertyOp33
 70
     1
102
RTVSPropertyOp34
 70
     1
102
RTVSPropertyOp35
 70
     1
102
RTVSPropertyOp36
 70
     1
102
RTVSPropertyOp37
 70
     1
102
RTVSPropertyOp38
 70
     1
102
RTVSPropertyOp39
 70
     1
102
RTVSPropertyOp40
 70
     1
102
RTVSPropertyOp41
 70
     1
102
RTVSPropertyOp42
 70
     1
102
RTVSPropertyOp43
 70
     1
102
RTVSPropertyOp44
 70
     1
102
RTVSPropertyOp45
 70
     1
102
RTVSPropertyOp46
 70
     1
102
RTVSPropertyOp47
 70
     1
102
RTVSPropertyOp48
 70
     1
102
RTVSPropertyOp49
 70
     1
102
RTVSPropertyOp50
 70
     1
102
RTVSPropertyOp51
 70
     0
102
RTVSPropertyOp52
 70
     0
102
RTVSPropertyOp53
 70
     1
102
RTVSPropertyOp54
 70
     1
102
RTVSPropertyOp55
 70
     1
102
RTVSPropertyOp56
 70
     1
102
RTVSPropertyOp57
 70
     1
102
RTVSPost2010Prop28
280
     0
102
RTVSPost2010PropOp28
 70
     1
102
RTVSPost2010Prop29
280
     1
102
RTVSPost2010PropOp29
 70
     1
102
RTVSPost2010Prop30
280
     1
102
RTVSPost2010PropOp30
 70
     1
102
RTVSPost2010Prop31
280
     0
102
RTVSPost2010PropOp31
 70
     1
102
RTVSPost2010Prop32
280
     0
102
RTVSPost2010PropOp32
 70
     1
102
RTVSPost2010Prop33
280
     0
102
RTVSPost2010PropOp33
 70
     1
102
RTVSPost2010Prop34
280
     0
102
RTVSPost2010PropOp34
 70
     1
102
RTVSPost2010Prop35
280
     0
102
RTVSPost2010PropOp35
 70
     1
102
RTVSPost2010Prop36
280
     0
102
RTVSPost2010PropOp36
 70
     1
102
RTVSPost2010Prop37
 90
       50
102
RTVSPost2010PropOp37
 70
     1
102
RTVSPost2010Prop38
140
0.0
102
RTVSPost2010PropOp38
 70
     1
102
RTVSPost2010Prop39
140
1.0
102
RTVSPost2010PropOp39
 70
     1
102
RTVSPost2010Prop40
 90
        0
102
RTVSPost2010PropOp40
 70
     1
102
RTVSPost2010Prop41ColorIndex
 90
       18
102
RTVSPost2010Prop41ColorRGB
 90
        0
102
RTVSPost2010PropOp41
 70
     1
102
RTVSPost2010Prop42
 90
       50
102
RTVSPost2010PropOp42
 70
     1
102
RTVSPost2010Prop43
 90
        3
102
RTVSPost2010PropOp43
 70
     1
102
RTVSPost2010Prop44ColorIndex
 90
        5
102
RTVSPost2010Prop44ColorRGB
 90
      255
102
RTVSPost2010PropOp44
 70
     1
102
RTVSPost2010Prop45
280
     0
102
RTVSPost2010PropOp45
 70
     1
102
RTVSPost2010Prop46
 90
       50
102
RTVSPost2010PropOp46
 70
     1
102
RTVSPost2010Prop47
 90
       50
102
RTVSPost2010PropOp47
 70
     1
102
RTVSPost2010Prop48
 90
       50
102
RTVSPost2010PropOp48
 70
     1
102
RTVSPost2010Prop49
280
     0
102
RTVSPost2010PropOp49
 70
     1
102
RTVSPost2010Prop50
 90
       50
102
RTVSPost2010PropOp50
 70
     1
102
RTVSPost2010Prop51ColorIndex
 90
      256
102
RTVSPost2010Prop51ColorRGB
 90
-16777216
102
RTVSPost2010PropOp51
 70
     0
102
RTVSPost2010Prop52
140
1.0
102
RTVSPost2010PropOp52
 70
     0
102
RTVSPost2010Prop53
 90
        2
102
RTVSPost2010PropOp53
 70
     1
102
RTVSPost2010Prop54
  1
strokes_ogs.tif
102
RTVSPost2010PropOp54
 70
     1
102
RTVSPost2010Prop55
280
     0
102
RTVSPost2010PropOp55
 70
     1
102
RTVSPost2010Prop56
140
1.0
102
RTVSPost2010PropOp56
 70
     1
102
RTVSPost2010Prop57
140
1.0
102
RTVSPost2010PropOp57
 70
     1
  0
XRECORD
  5
FF
102
{ACAD_REACTORS
330
FE
102
}
330
FE
100
AcDbXrecord
280
     1
102
RTVSPropertyOp0
 70
     1
102
RTVSPropertyOp1
 70
     1
102
RTVSPropertyOp2
 70
     1
102
RTVSPropertyOp3
 70
     1
102
RTVSPropertyOp4
 70
     1
102
RTVSPropertyOp5
 70
     1
102
RTVSPropertyOp6
 70
     1
102
RTVSPropertyOp7
 70
     1
102
RTVSPropertyOp8
 70
     1
102
RTVSPropertyOp9
 70
     1
102
RTVSPropertyOp10
 70
     1
102
RTVSPropertyOp11
 70
     1
102
RTVSPropertyOp12
 70
     1
102
RTVSPropertyOp13
 70
     1
102
RTVSPropertyOp14
 70
     1
102
RTVSPropertyOp15
 70
     1
102
RTVSPropertyOp16
 70
     1
102
RTVSPropertyOp17
 70
     1
102
RTVSPropertyOp18
 70
     1
102
RTVSPropertyOp19
 70
     1
102
RTVSPropertyOp20
 70
     1
102
RTVSPropertyOp21
 70
     1
102
RTVSPropertyOp22
 70
     1
102
RTVSPropertyOp23
 70
     1
102
RTVSPropertyOp24
 70
     1
102
RTVSPropertyOp25
 70
     1
102
RTVSPropertyOp26
 70
     1
102
RTVSPropertyOp27
 70
     1
102
RTVSPropertyOp28
 70
     1
102
RTVSPropertyOp29
 70
     1
102
RTVSPropertyOp30
 70
     1
102
RTVSPropertyOp31
 70
     1
102
RTVSPropertyOp32
 70
     1
102
RTVSPropertyOp33
 70
     1
102
RTVSPropertyOp34
 70
     1
102
RTVSPropertyOp35
 70
     1
102
RTVSPropertyOp36
 70
     1
102
RTVSPropertyOp37
 70
     1
102
RTVSPropertyOp38
 70
     1
102
RTVSPropertyOp39
 70
     1
102
RTVSPropertyOp40
 70
     1
102
RTVSPropertyOp41
 70
     1
102
RTVSPropertyOp42
 70
     1
102
RTVSPropertyOp43
 70
     1
102
RTVSPropertyOp44
 70
     1
102
RTVSPropertyOp45
 70
     1
102
RTVSPropertyOp46
 70
     1
102
RTVSPropertyOp47
 70
     1
102
RTVSPropertyOp48
 70
     1
102
RTVSPropertyOp49
 70
     1
102
RTVSPropertyOp50
 70
     1
102
RTVSPropertyOp51
 70
     0
102
RTVSPropertyOp52
 70
     0
102
RTVSPropertyOp53
 70
     1
102
RTVSPropertyOp54
 70
     1
102
RTVSPropertyOp55
 70
     1
102
RTVSPropertyOp56
 70
     1
102
RTVSPropertyOp57
 70
     1
102
RTVSPost2010Prop28
280
     0
102
RTVSPost2010PropOp28
 70
     1
102
RTVSPost2010Prop29
280
     1
102
RTVSPost2010PropOp29
 70
     1
102
RTVSPost2010Prop30
280
     1
102
RTVSPost2010PropOp30
 70
     1
102
RTVSPost2010Prop31
280
     0
102
RTVSPost2010PropOp31
 70
     1
102
RTVSPost2010Prop32
280
     0
102
RTVSPost2010PropOp32
 70
     1
102
RTVSPost2010Prop33
280
     0
102
RTVSPost2010PropOp33
 70
     1
102
RTVSPost2010Prop34
280
     0
102
RTVSPost2010PropOp34
 70
     1
102
RTVSPost2010Prop35
280
     0
102
RTVSPost2010PropOp35
 70
     1
102
RTVSPost2010Prop36
280
     0
102
RTVSPost2010PropOp36
 70
     1
102
RTVSPost2010Prop37
 90
       50
102
RTVSPost2010PropOp37
 70
     1
102
RTVSPost2010Prop38
140
0.0
102
RTVSPost2010PropOp38
 70
     1
102
RTVSPost2010Prop39
140
1.0
102
RTVSPost2010PropOp39
 70
     1
102
RTVSPost2010Prop40
 90
        0
102
RTVSPost2010PropOp40
 70
     1
102
RTVSPost2010Prop41ColorIndex
 90
       18
102
RTVSPost2010Prop41ColorRGB
 90
        0
102
RTVSPost2010PropOp41
 70
     1
102
RTVSPost2010Prop42
 90
       50
102
RTVSPost2010PropOp42
 70
     1
102
RTVSPost2010Prop43
 90
        3
102
RTVSPost2010PropOp43
 70
     1
102
RTVSPost2010Prop44ColorIndex
 90
        5
102
RTVSPost2010Prop44ColorRGB
 90
      255
102
RTVSPost2010PropOp44
 70
     1
102
RTVSPost2010Prop45
280
     0
102
RTVSPost2010PropOp45
 70
     1
102
RTVSPost2010Prop46
 90
       50
102
RTVSPost2010PropOp46
 70
     1
102
RTVSPost2010Prop47
 90
       50
102
RTVSPost2010PropOp47
 70
     1
102
RTVSPost2010Prop48
 90
       50
102
RTVSPost2010PropOp48
 70
     1
102
RTVSPost2010Prop49
280
     0
102
RTVSPost2010PropOp49
 70
     1
102
RTVSPost2010Prop50
 90
       50
102
RTVSPost2010PropOp50
 70
     1
102
RTVSPost2010Prop51ColorIndex
 90
      256
102
RTVSPost2010Prop51ColorRGB
 90
-16777216
102
RTVSPost2010PropOp51
 70
     0
102
RTVSPost2010Prop52
140
1.0
102
RTVSPost2010PropOp52
 70
     0
102
RTVSPost2010Prop53
 90
        2
102
RTVSPost2010PropOp53
 70
     1
102
RTVSPost2010Prop54
  1
strokes_ogs.tif
102
RTVSPost2010PropOp54
 70
     1
102
RTVSPost2010Prop55
280
     0
102
RTVSPost2010PropOp55
 70
     1
102
RTVSPost2010Prop56
140
1.0
102
RTVSPost2010PropOp56
 70
     1
102
RTVSPost2010Prop57
140
1.0
102
RTVSPost2010PropOp57
 70
     1
  0
XRECORD
  5
101
102
{ACAD_REACTORS
330
100
102
}
330
100
100
AcDbXrecord
280
     1
102
RTVSPropertyOp0
 70
     1
102
RTVSPropertyOp1
 70
     1
102
RTVSPropertyOp2
 70
     1
102
RTVSPropertyOp3
 70
     1
102
RTVSPropertyOp4
 70
     1
102
RTVSPropertyOp5
 70
     1
102
RTVSPropertyOp6
 70
     1
102
RTVSPropertyOp7
 70
     1
102
RTVSPropertyOp8
 70
     1
102
RTVSPropertyOp9
 70
     1
102
RTVSPropertyOp10
 70
     1
102
RTVSPropertyOp11
 70
     1
102
RTVSPropertyOp12
 70
     1
102
RTVSPropertyOp13
 70
     1
102
RTVSPropertyOp14
 70
     1
102
RTVSPropertyOp15
 70
     1
102
RTVSPropertyOp16
 70
     1
102
RTVSPropertyOp17
 70
     1
102
RTVSPropertyOp18
 70
     1
102
RTVSPropertyOp19
 70
     1
102
RTVSPropertyOp20
 70
     1
102
RTVSPropertyOp21
 70
     1
102
RTVSPropertyOp22
 70
     1
102
RTVSPropertyOp23
 70
     1
102
RTVSPropertyOp24
 70
     1
102
RTVSPropertyOp25
 70
     1
102
RTVSPropertyOp26
 70
     1
102
RTVSPropertyOp27
 70
     1
102
RTVSPropertyOp28
 70
     1
102
RTVSPropertyOp29
 70
     1
102
RTVSPropertyOp30
 70
     1
102
RTVSPropertyOp31
 70
     1
102
RTVSPropertyOp32
 70
     1
102
RTVSPropertyOp33
 70
     1
102
RTVSPropertyOp34
 70
     1
102
RTVSPropertyOp35
 70
     1
102
RTVSPropertyOp36
 70
     1
102
RTVSPropertyOp37
 70
     1
102
RTVSPropertyOp38
 70
     1
102
RTVSPropertyOp39
 70
     1
102
RTVSPropertyOp40
 70
     1
102
RTVSPropertyOp41
 70
     1
102
RTVSPropertyOp42
 70
     1
102
RTVSPropertyOp43
 70
     1
102
RTVSPropertyOp44
 70
     1
102
RTVSPropertyOp45
 70
     1
102
RTVSPropertyOp46
 70
     1
102
RTVSPropertyOp47
 70
     1
102
RTVSPropertyOp48
 70
     1
102
RTVSPropertyOp49
 70
     1
102
RTVSPropertyOp50
 70
     1
102
RTVSPropertyOp51
 70
     0
102
RTVSPropertyOp52
 70
     0
102
RTVSPropertyOp53
 70
     1
102
RTVSPropertyOp54
 70
     1
102
RTVSPropertyOp55
 70
     1
102
RTVSPropertyOp56
 70
     1
102
RTVSPropertyOp57
 70
     1
102
RTVSPost2010Prop28
280
     0
102
RTVSPost2010PropOp28
 70
     1
102
RTVSPost2010Prop29
280
     1
102
RTVSPost2010PropOp29
 70
     1
102
RTVSPost2010Prop30
280
     1
102
RTVSPost2010PropOp30
 70
     1
102
RTVSPost2010Prop31
280
     0
102
RTVSPost2010PropOp31
 70
     1
102
RTVSPost2010Prop32
280
     0
102
RTVSPost2010PropOp32
 70
     1
102
RTVSPost2010Prop33
280
     0
102
RTVSPost2010PropOp33
 70
     1
102
RTVSPost2010Prop34
280
     0
102
RTVSPost2010PropOp34
 70
     1
102
RTVSPost2010Prop35
280
     0
102
RTVSPost2010PropOp35
 70
     1
102
RTVSPost2010Prop36
280
     0
102
RTVSPost2010PropOp36
 70
     1
102
RTVSPost2010Prop37
 90
       50
102
RTVSPost2010PropOp37
 70
     1
102
RTVSPost2010Prop38
140
0.0
102
RTVSPost2010PropOp38
 70
     1
102
RTVSPost2010Prop39
140
1.0
102
RTVSPost2010PropOp39
 70
     1
102
RTVSPost2010Prop40
 90
        0
102
RTVSPost2010PropOp40
 70
     1
102
RTVSPost2010Prop41ColorIndex
 90
       18
102
RTVSPost2010Prop41ColorRGB
 90
        0
102
RTVSPost2010PropOp41
 70
     1
102
RTVSPost2010Prop42
 90
       50
102
RTVSPost2010PropOp42
 70
     1
102
RTVSPost2010Prop43
 90
        3
102
RTVSPost2010PropOp43
 70
     1
102
RTVSPost2010Prop44ColorIndex
 90
        5
102
RTVSPost2010Prop44ColorRGB
 90
      255
102
RTVSPost2010PropOp44
 70
     1
102
RTVSPost2010Prop45
280
     0
102
RTVSPost2010PropOp45
 70
     1
102
RTVSPost2010Prop46
 90
       50
102
RTVSPost2010PropOp46
 70
     1
102
RTVSPost2010Prop47
 90
       50
102
RTVSPost2010PropOp47
 70
     1
102
RTVSPost2010Prop48
 90
       50
102
RTVSPost2010PropOp48
 70
     1
102
RTVSPost2010Prop49
280
     0
102
RTVSPost2010PropOp49
 70
     1
102
RTVSPost2010Prop50
 90
       50
102
RTVSPost2010PropOp50
 70
     1
102
RTVSPost2010Prop51ColorIndex
 90
      256
102
RTVSPost2010Prop51ColorRGB
 90
-16777216
102
RTVSPost2010PropOp51
 70
     0
102
RTVSPost2010Prop52
140
1.0
102
RTVSPost2010PropOp52
 70
     0
102
RTVSPost2010Prop53
 90
        2
102
RTVSPost2010PropOp53
 70
     1
102
RTVSPost2010Prop54
  1
strokes_ogs.tif
102
RTVSPost2010PropOp54
 70
     1
102
RTVSPost2010Prop55
280
     0
102
RTVSPost2010PropOp55
 70
     1
102
RTVSPost2010Prop56
140
1.0
102
RTVSPost2010PropOp56
 70
     1
102
RTVSPost2010Prop57
140
1.0
102
RTVSPost2010PropOp57
 70
     1
  0
XRECORD
  5
103
102
{ACAD_REACTORS
330
102
102
}
330
102
100
AcDbXrecord
280
     1
102
RTVSPropertyOp0
 70
     1
102
RTVSPropertyOp1
 70
     1
102
RTVSPropertyOp2
 70
     1
102
RTVSPropertyOp3
 70
     1
102
RTVSPropertyOp4
 70
     1
102
RTVSPropertyOp5
 70
     1
102
RTVSPropertyOp6
 70
     1
102
RTVSPropertyOp7
 70
     1
102
RTVSPropertyOp8
 70
     1
102
RTVSPropertyOp9
 70
     1
102
RTVSPropertyOp10
 70
     1
102
RTVSPropertyOp11
 70
     1
102
RTVSPropertyOp12
 70
     1
102
RTVSPropertyOp13
 70
     1
102
RTVSPropertyOp14
 70
     1
102
RTVSPropertyOp15
 70
     1
102
RTVSPropertyOp16
 70
     1
102
RTVSPropertyOp17
 70
     1
102
RTVSPropertyOp18
 70
     1
102
RTVSPropertyOp19
 70
     1
102
RTVSPropertyOp20
 70
     1
102
RTVSPropertyOp21
 70
     1
102
RTVSPropertyOp22
 70
     1
102
RTVSPropertyOp23
 70
     1
102
RTVSPropertyOp24
 70
     1
102
RTVSPropertyOp25
 70
     1
102
RTVSPropertyOp26
 70
     1
102
RTVSPropertyOp27
 70
     1
102
RTVSPropertyOp28
 70
     1
102
RTVSPropertyOp29
 70
     1
102
RTVSPropertyOp30
 70
     1
102
RTVSPropertyOp31
 70
     1
102
RTVSPropertyOp32
 70
     1
102
RTVSPropertyOp33
 70
     1
102
RTVSPropertyOp34
 70
     1
102
RTVSPropertyOp35
 70
     1
102
RTVSPropertyOp36
 70
     1
102
RTVSPropertyOp37
 70
     1
102
RTVSPropertyOp38
 70
     1
102
RTVSPropertyOp39
 70
     1
102
RTVSPropertyOp40
 70
     1
102
RTVSPropertyOp41
 70
     1
102
RTVSPropertyOp42
 70
     1
102
RTVSPropertyOp43
 70
     1
102
RTVSPropertyOp44
 70
     1
102
RTVSPropertyOp45
 70
     1
102
RTVSPropertyOp46
 70
     1
102
RTVSPropertyOp47
 70
     1
102
RTVSPropertyOp48
 70
     1
102
RTVSPropertyOp49
 70
     1
102
RTVSPropertyOp50
 70
     1
102
RTVSPropertyOp51
 70
     0
102
RTVSPropertyOp52
 70
     0
102
RTVSPropertyOp53
 70
     1
102
RTVSPropertyOp54
 70
     1
102
RTVSPropertyOp55
 70
     1
102
RTVSPropertyOp56
 70
     1
102
RTVSPropertyOp57
 70
     1
102
RTVSPost2010Prop28
280
     0
102
RTVSPost2010PropOp28
 70
     1
102
RTVSPost2010Prop29
280
     1
102
RTVSPost2010PropOp29
 70
     1
102
RTVSPost2010Prop30
280
     1
102
RTVSPost2010PropOp30
 70
     1
102
RTVSPost2010Prop31
280
     0
102
RTVSPost2010PropOp31
 70
     1
102
RTVSPost2010Prop32
280
     0
102
RTVSPost2010PropOp32
 70
     1
102
RTVSPost2010Prop33
280
     0
102
RTVSPost2010PropOp33
 70
     1
102
RTVSPost2010Prop34
280
     0
102
RTVSPost2010PropOp34
 70
     1
102
RTVSPost2010Prop35
280
     0
102
RTVSPost2010PropOp35
 70
     1
102
RTVSPost2010Prop36
280
     0
102
RTVSPost2010PropOp36
 70
     1
102
RTVSPost2010Prop37
 90
       50
102
RTVSPost2010PropOp37
 70
     1
102
RTVSPost2010Prop38
140
0.0
102
RTVSPost2010PropOp38
 70
     1
102
RTVSPost2010Prop39
140
1.0
102
RTVSPost2010PropOp39
 70
     1
102
RTVSPost2010Prop40
 90
        0
102
RTVSPost2010PropOp40
 70
     1
102
RTVSPost2010Prop41ColorIndex
 90
       18
102
RTVSPost2010Prop41ColorRGB
 90
        0
102
RTVSPost2010PropOp41
 70
     1
102
RTVSPost2010Prop42
 90
       50
102
RTVSPost2010PropOp42
 70
     1
102
RTVSPost2010Prop43
 90
        3
102
RTVSPost2010PropOp43
 70
     1
102
RTVSPost2010Prop44ColorIndex
 90
        5
102
RTVSPost2010Prop44ColorRGB
 90
      255
102
RTVSPost2010PropOp44
 70
     1
102
RTVSPost2010Prop45
280
     0
102
RTVSPost2010PropOp45
 70
     1
102
RTVSPost2010Prop46
 90
       50
102
RTVSPost2010PropOp46
 70
     1
102
RTVSPost2010Prop47
 90
       50
102
RTVSPost2010PropOp47
 70
     1
102
RTVSPost2010Prop48
 90
       50
102
RTVSPost2010PropOp48
 70
     1
102
RTVSPost2010Prop49
280
     0
102
RTVSPost2010PropOp49
 70
     1
102
RTVSPost2010Prop50
 90
       50
102
RTVSPost2010PropOp50
 70
     1
102
RTVSPost2010Prop51ColorIndex
 90
      256
102
RTVSPost2010Prop51ColorRGB
 90
-16777216
102
RTVSPost2010PropOp51
 70
     0
102
RTVSPost2010Prop52
140
1.0
102
RTVSPost2010PropOp52
 70
     0
102
RTVSPost2010Prop53
 90
        2
102
RTVSPost2010PropOp53
 70
     1
102
RTVSPost2010Prop54
  1
strokes_ogs.tif
102
RTVSPost2010PropOp54
 70
     1
102
RTVSPost2010Prop55
280
     0
102
RTVSPost2010PropOp55
 70
     1
102
RTVSPost2010Prop56
140
1.0
102
RTVSPost2010PropOp56
 70
     1
102
RTVSPost2010Prop57
140
1.0
102
RTVSPost2010PropOp57
 70
     1
  0
XRECORD
  5
109
102
{ACAD_REACTORS
330
108
102
}
330
108
100
AcDbXrecord
280
     1
102
RTVSPropertyOp0
 70
     1
102
RTVSPropertyOp1
 70
     1
102
RTVSPropertyOp2
 70
     1
102
RTVSPropertyOp3
 70
     1
102
RTVSPropertyOp4
 70
     1
102
RTVSPropertyOp5
 70
     1
102
RTVSPropertyOp6
 70
     1
102
RTVSPropertyOp7
 70
     1
102
RTVSPropertyOp8
 70
     1
102
RTVSPropertyOp9
 70
     1
102
RTVSPropertyOp10
 70
     1
102
RTVSPropertyOp11
 70
     1
102
RTVSPropertyOp12
 70
     1
102
RTVSPropertyOp13
 70
     1
102
RTVSPropertyOp14
 70
     1
102
RTVSPropertyOp15
 70
     1
102
RTVSPropertyOp16
 70
     1
102
RTVSPropertyOp17
 70
     1
102
RTVSPropertyOp18
 70
     1
102
RTVSPropertyOp19
 70
     1
102
RTVSPropertyOp20
 70
     1
102
RTVSPropertyOp21
 70
     1
102
RTVSPropertyOp22
 70
     1
102
RTVSPropertyOp23
 70
     1
102
RTVSPropertyOp24
 70
     1
102
RTVSPropertyOp25
 70
     1
102
RTVSPropertyOp26
 70
     1
102
RTVSPropertyOp27
 70
     1
102
RTVSPropertyOp28
 70
     1
102
RTVSPropertyOp29
 70
     1
102
RTVSPropertyOp30
 70
     1
102
RTVSPropertyOp31
 70
     1
102
RTVSPropertyOp32
 70
     1
102
RTVSPropertyOp33
 70
     1
102
RTVSPropertyOp34
 70
     1
102
RTVSPropertyOp35
 70
     1
102
RTVSPropertyOp36
 70
     1
102
RTVSPropertyOp37
 70
     1
102
RTVSPropertyOp38
 70
     1
102
RTVSPropertyOp39
 70
     1
102
RTVSPropertyOp40
 70
     1
102
RTVSPropertyOp41
 70
     1
102
RTVSPropertyOp42
 70
     1
102
RTVSPropertyOp43
 70
     1
102
RTVSPropertyOp44
 70
     1
102
RTVSPropertyOp45
 70
     1
102
RTVSPropertyOp46
 70
     1
102
RTVSPropertyOp47
 70
     1
102
RTVSPropertyOp48
 70
     1
102
RTVSPropertyOp49
 70
     1
102
RTVSPropertyOp50
 70
     1
102
RTVSPropertyOp51
 70
     0
102
RTVSPropertyOp52
 70
     0
102
RTVSPropertyOp53
 70
     1
102
RTVSPropertyOp54
 70
     1
102
RTVSPropertyOp55
 70
     1
102
RTVSPropertyOp56
 70
     1
102
RTVSPropertyOp57
 70
     1
102
RTVSPost2010Prop28
280
     0
102
RTVSPost2010PropOp28
 70
     1
102
RTVSPost2010Prop29
280
     1
102
RTVSPost2010PropOp29
 70
     1
102
RTVSPost2010Prop30
280
     1
102
RTVSPost2010PropOp30
 70
     1
102
RTVSPost2010Prop31
280
     0
102
RTVSPost2010PropOp31
 70
     1
102
RTVSPost2010Prop32
280
     0
102
RTVSPost2010PropOp32
 70
     1
102
RTVSPost2010Prop33
280
     0
102
RTVSPost2010PropOp33
 70
     1
102
RTVSPost2010Prop34
280
     0
102
RTVSPost2010PropOp34
 70
     1
102
RTVSPost2010Prop35
280
     0
102
RTVSPost2010PropOp35
 70
     1
102
RTVSPost2010Prop36
280
     0
102
RTVSPost2010PropOp36
 70
     1
102
RTVSPost2010Prop37
 90
       50
102
RTVSPost2010PropOp37
 70
     1
102
RTVSPost2010Prop38
140
0.0
102
RTVSPost2010PropOp38
 70
     1
102
RTVSPost2010Prop39
140
1.0
102
RTVSPost2010PropOp39
 70
     1
102
RTVSPost2010Prop40
 90
        0
102
RTVSPost2010PropOp40
 70
     1
102
RTVSPost2010Prop41ColorIndex
 90
       18
102
RTVSPost2010Prop41ColorRGB
 90
        0
102
RTVSPost2010PropOp41
 70
     1
102
RTVSPost2010Prop42
 90
       50
102
RTVSPost2010PropOp42
 70
     1
102
RTVSPost2010Prop43
 90
        3
102
RTVSPost2010PropOp43
 70
     1
102
RTVSPost2010Prop44ColorIndex
 90
        5
102
RTVSPost2010Prop44ColorRGB
 90
      255
102
RTVSPost2010PropOp44
 70
     1
102
RTVSPost2010Prop45
280
     0
102
RTVSPost2010PropOp45
 70
     1
102
RTVSPost2010Prop46
 90
       50
102
RTVSPost2010PropOp46
 70
     1
102
RTVSPost2010Prop47
 90
       50
102
RTVSPost2010PropOp47
 70
     1
102
RTVSPost2010Prop48
 90
       50
102
RTVSPost2010PropOp48
 70
     1
102
RTVSPost2010Prop49
280
     0
102
RTVSPost2010PropOp49
 70
     1
102
RTVSPost2010Prop50
 90
       50
102
RTVSPost2010PropOp50
 70
     1
102
RTVSPost2010Prop51ColorIndex
 90
      256
102
RTVSPost2010Prop51ColorRGB
 90
-16777216
102
RTVSPost2010PropOp51
 70
     0
102
RTVSPost2010Prop52
140
1.0
102
RTVSPost2010PropOp52
 70
     0
102
RTVSPost2010Prop53
 90
        2
102
RTVSPost2010PropOp53
 70
     1
102
RTVSPost2010Prop54
  1
strokes_ogs.tif
102
RTVSPost2010PropOp54
 70
     1
102
RTVSPost2010Prop55
280
     0
102
RTVSPost2010PropOp55
 70
     1
102
RTVSPost2010Prop56
140
1.0
102
RTVSPost2010PropOp56
 70
     1
102
RTVSPost2010Prop57
140
1.0
102
RTVSPost2010PropOp57
 70
     1
  0
XRECORD
  5
11D
102
{ACAD_REACTORS
330
11C
102
}
330
11C
100
AcDbXrecord
280
     1
102
RTVSPropertyOp0
 70
     0
102
RTVSPropertyOp1
 70
     0
102
RTVSPropertyOp2
 70
     0
102
RTVSPropertyOp3
 70
     0
102
RTVSPropertyOp4
 70
     0
102
RTVSPropertyOp5
 70
     0
102
RTVSPropertyOp6
 70
     0
102
RTVSPropertyOp7
 70
     0
102
RTVSPropertyOp8
 70
     0
102
RTVSPropertyOp9
 70
     0
102
RTVSPropertyOp10
 70
     0
102
RTVSPropertyOp11
 70
     0
102
RTVSPropertyOp12
 70
     0
102
RTVSPropertyOp13
 70
     0
102
RTVSPropertyOp14
 70
     2
102
RTVSPropertyOp15
 70
     0
102
RTVSPropertyOp16
 70
     0
102
RTVSPropertyOp17
 70
     0
102
RTVSPropertyOp18
 70
     0
102
RTVSPropertyOp19
 70
     0
102
RTVSPropertyOp20
 70
     0
102
RTVSPropertyOp21
 70
     0
102
RTVSPropertyOp22
 70
     0
102
RTVSPropertyOp23
 70
     0
102
RTVSPropertyOp24
 70
     0
102
RTVSPropertyOp25
 70
     0
102
RTVSPropertyOp26
 70
     0
102
RTVSPropertyOp27
 70
     0
102
RTVSPropertyOp28
 70
     0
102
RTVSPropertyOp29
 70
     0
102
RTVSPropertyOp30
 70
     0
102
RTVSPropertyOp31
 70
     0
102
RTVSPropertyOp32
 70
     0
102
RTVSPropertyOp33
 70
     0
102
RTVSPropertyOp34
 70
     0
102
RTVSPropertyOp35
 70
     0
102
RTVSPropertyOp36
 70
     0
102
RTVSPropertyOp37
 70
     0
102
RTVSPropertyOp38
 70
     0
102
RTVSPropertyOp39
 70
     0
102
RTVSPropertyOp40
 70
     0
102
RTVSPropertyOp41
 70
     0
102
RTVSPropertyOp42
 70
     0
102
RTVSPropertyOp43
 70
     0
102
RTVSPropertyOp44
 70
     0
102
RTVSPropertyOp45
 70
     0
102
RTVSPropertyOp46
 70
     0
102
RTVSPropertyOp47
 70
     0
102
RTVSPropertyOp48
 70
     0
102
RTVSPropertyOp49
 70
     0
102
RTVSPropertyOp50
 70
     0
102
RTVSPropertyOp51
 70
     0
102
RTVSPropertyOp52
 70
     0
102
RTVSPropertyOp53
 70
     0
102
RTVSPropertyOp54
 70
     0
102
RTVSPropertyOp55
 70
     0
102
RTVSPropertyOp56
 70
     0
102
RTVSPropertyOp57
 70
     0
102
RTVSPost2010Prop28
280
     0
102
RTVSPost2010PropOp28
 70
     0
102
RTVSPost2010Prop29
280
     1
102
RTVSPost2010PropOp29
 70
     0
102
RTVSPost2010Prop30
280
     1
102
RTVSPost2010PropOp30
 70
     0
102
RTVSPost2010Prop31
280
     0
102
RTVSPost2010PropOp31
 70
     0
102
RTVSPost2010Prop32
280
     0
102
RTVSPost2010PropOp32
 70
     0
102
RTVSPost2010Prop33
280
     0
102
RTVSPost2010PropOp33
 70
     0
102
RTVSPost2010Prop34
280
     0
102
RTVSPost2010PropOp34
 70
     0
102
RTVSPost2010Prop35
280
     0
102
RTVSPost2010PropOp35
 70
     0
102
RTVSPost2010Prop36
280
     0
102
RTVSPost2010PropOp36
 70
     0
102
RTVSPost2010Prop37
 90
       50
102
RTVSPost2010PropOp37
 70
     0
102
RTVSPost2010Prop38
140
0.0
102
RTVSPost2010PropOp38
 70
     0
102
RTVSPost2010Prop39
140
1.0
102
RTVSPost2010PropOp39
 70
     0
102
RTVSPost2010Prop40
 90
        0
102
RTVSPost2010PropOp40
 70
     0
102
RTVSPost2010Prop41ColorIndex
 90
       18
102
RTVSPost2010Prop41ColorRGB
 90
        0
102
RTVSPost2010PropOp41
 70
     0
102
RTVSPost2010Prop42
 90
       50
102
RTVSPost2010PropOp42
 70
     0
102
RTVSPost2010Prop43
 90
        3
102
RTVSPost2010PropOp43
 70
     0
102
RTVSPost2010Prop44ColorIndex
 90
        5
102
RTVSPost2010Prop44ColorRGB
 90
      255
102
RTVSPost2010PropOp44
 70
     0
102
RTVSPost2010Prop45
280
     0
102
RTVSPost2010PropOp45
 70
     0
102
RTVSPost2010Prop46
 90
       50
102
RTVSPost2010PropOp46
 70
     0
102
RTVSPost2010Prop47
 90
       50
102
RTVSPost2010PropOp47
 70
     0
102
RTVSPost2010Prop48
 90
       50
102
RTVSPost2010PropOp48
 70
     0
102
RTVSPost2010Prop49
280
     0
102
RTVSPost2010PropOp49
 70
     0
102
RTVSPost2010Prop50
 90
       50
102
RTVSPost2010PropOp50
 70
     0
102
RTVSPost2010Prop51ColorIndex
 90
      256
102
RTVSPost2010Prop51ColorRGB
 90
-16777216
102
RTVSPost2010PropOp51
 70
     0
102
RTVSPost2010Prop52
140
1.0
102
RTVSPost2010PropOp52
 70
     0
102
RTVSPost2010Prop53
 90
        2
102
RTVSPost2010PropOp53
 70
     0
102
RTVSPost2010Prop54
  1
strokes_ogs.tif
102
RTVSPost2010PropOp54
 70
     0
102
RTVSPost2010Prop55
280
     0
102
RTVSPost2010PropOp55
 70
     0
102
RTVSPost2010Prop56
140
1.0
102
RTVSPost2010PropOp56
 70
     0
102
RTVSPost2010Prop57
140
1.0
102
RTVSPost2010PropOp57
 70
     0
  0
XRECORD
  5
117
102
{ACAD_REACTORS
330
116
102
}
330
116
100
AcDbXrecord
280
     1
102
RTVSPropertyOp0
 70
     1
102
RTVSPropertyOp1
 70
     1
102
RTVSPropertyOp2
 70
     1
102
RTVSPropertyOp3
 70
     1
102
RTVSPropertyOp4
 70
     1
102
RTVSPropertyOp5
 70
     1
102
RTVSPropertyOp6
 70
     1
102
RTVSPropertyOp7
 70
     1
102
RTVSPropertyOp8
 70
     1
102
RTVSPropertyOp9
 70
     1
102
RTVSPropertyOp10
 70
     1
102
RTVSPropertyOp11
 70
     1
102
RTVSPropertyOp12
 70
     1
102
RTVSPropertyOp13
 70
     1
102
RTVSPropertyOp14
 70
     1
102
RTVSPropertyOp15
 70
     1
102
RTVSPropertyOp16
 70
     1
102
RTVSPropertyOp17
 70
     1
102
RTVSPropertyOp18
 70
     1
102
RTVSPropertyOp19
 70
     1
102
RTVSPropertyOp20
 70
     1
102
RTVSPropertyOp21
 70
     1
102
RTVSPropertyOp22
 70
     1
102
RTVSPropertyOp23
 70
     1
102
RTVSPropertyOp24
 70
     1
102
RTVSPropertyOp25
 70
     1
102
RTVSPropertyOp26
 70
     1
102
RTVSPropertyOp27
 70
     1
102
RTVSPropertyOp28
 70
     1
102
RTVSPropertyOp29
 70
     1
102
RTVSPropertyOp30
 70
     1
102
RTVSPropertyOp31
 70
     1
102
RTVSPropertyOp32
 70
     1
102
RTVSPropertyOp33
 70
     1
102
RTVSPropertyOp34
 70
     1
102
RTVSPropertyOp35
 70
     1
102
RTVSPropertyOp36
 70
     1
102
RTVSPropertyOp37
 70
     1
102
RTVSPropertyOp38
 70
     1
102
RTVSPropertyOp39
 70
     1
102
RTVSPropertyOp40
 70
     1
102
RTVSPropertyOp41
 70
     1
102
RTVSPropertyOp42
 70
     1
102
RTVSPropertyOp43
 70
     1
102
RTVSPropertyOp44
 70
     1
102
RTVSPropertyOp45
 70
     1
102
RTVSPropertyOp46
 70
     1
102
RTVSPropertyOp47
 70
     1
102
RTVSPropertyOp48
 70
     1
102
RTVSPropertyOp49
 70
     1
102
RTVSPropertyOp50
 70
     1
102
RTVSPropertyOp51
 70
     0
102
RTVSPropertyOp52
 70
     0
102
RTVSPropertyOp53
 70
     1
102
RTVSPropertyOp54
 70
     1
102
RTVSPropertyOp55
 70
     1
102
RTVSPropertyOp56
 70
     1
102
RTVSPropertyOp57
 70
     1
102
RTVSPost2010Prop28
280
     0
102
RTVSPost2010PropOp28
 70
     1
102
RTVSPost2010Prop29
280
     1
102
RTVSPost2010PropOp29
 70
     1
102
RTVSPost2010Prop30
280
     1
102
RTVSPost2010PropOp30
 70
     1
102
RTVSPost2010Prop31
280
     0
102
RTVSPost2010PropOp31
 70
     1
102
RTVSPost2010Prop32
280
     0
102
RTVSPost2010PropOp32
 70
     1
102
RTVSPost2010Prop33
280
     0
102
RTVSPost2010PropOp33
 70
     1
102
RTVSPost2010Prop34
280
     0
102
RTVSPost2010PropOp34
 70
     1
102
RTVSPost2010Prop35
280
     0
102
RTVSPost2010PropOp35
 70
     1
102
RTVSPost2010Prop36
280
     0
102
RTVSPost2010PropOp36
 70
     1
102
RTVSPost2010Prop37
 90
       50
102
RTVSPost2010PropOp37
 70
     1
102
RTVSPost2010Prop38
140
0.0
102
RTVSPost2010PropOp38
 70
     1
102
RTVSPost2010Prop39
140
1.0
102
RTVSPost2010PropOp39
 70
     1
102
RTVSPost2010Prop40
 90
        0
102
RTVSPost2010PropOp40
 70
     1
102
RTVSPost2010Prop41ColorIndex
 90
       18
102
RTVSPost2010Prop41ColorRGB
 90
        0
102
RTVSPost2010PropOp41
 70
     1
102
RTVSPost2010Prop42
 90
       50
102
RTVSPost2010PropOp42
 70
     1
102
RTVSPost2010Prop43
 90
        3
102
RTVSPost2010PropOp43
 70
     1
102
RTVSPost2010Prop44ColorIndex
 90
        5
102
RTVSPost2010Prop44ColorRGB
 90
      255
102
RTVSPost2010PropOp44
 70
     1
102
RTVSPost2010Prop45
280
     0
102
RTVSPost2010PropOp45
 70
     1
102
RTVSPost2010Prop46
 90
       50
102
RTVSPost2010PropOp46
 70
     1
102
RTVSPost2010Prop47
 90
       50
102
RTVSPost2010PropOp47
 70
     1
102
RTVSPost2010Prop48
 90
       50
102
RTVSPost2010PropOp48
 70
     1
102
RTVSPost2010Prop49
280
     0
102
RTVSPost2010PropOp49
 70
     1
102
RTVSPost2010Prop50
 90
       50
102
RTVSPost2010PropOp50
 70
     1
102
RTVSPost2010Prop51ColorIndex
 90
      256
102
RTVSPost2010Prop51ColorRGB
 90
-16777216
102
RTVSPost2010PropOp51
 70
     0
102
RTVSPost2010Prop52
140
1.0
102
RTVSPost2010PropOp52
 70
     0
102
RTVSPost2010Prop53
 90
        2
102
RTVSPost2010PropOp53
 70
     1
102
RTVSPost2010Prop54
  1
strokes_ogs.tif
102
RTVSPost2010PropOp54
 70
     1
102
RTVSPost2010Prop55
280
     0
102
RTVSPost2010PropOp55
 70
     1
102
RTVSPost2010Prop56
140
1.0
102
RTVSPost2010PropOp56
 70
     1
102
RTVSPost2010Prop57
140
1.0
102
RTVSPost2010PropOp57
 70
     1
  0
XRECORD
  5
11F
102
{ACAD_REACTORS
330
11E
102
}
330
11E
100
AcDbXrecord
280
     1
102
RTVSPropertyOp0
 70
     0
102
RTVSPropertyOp1
 70
     0
102
RTVSPropertyOp2
 70
     0
102
RTVSPropertyOp3
 70
     0
102
RTVSPropertyOp4
 70
     0
102
RTVSPropertyOp5
 70
     0
102
RTVSPropertyOp6
 70
     0
102
RTVSPropertyOp7
 70
     0
102
RTVSPropertyOp8
 70
     0
102
RTVSPropertyOp9
 70
     0
102
RTVSPropertyOp10
 70
     0
102
RTVSPropertyOp11
 70
     0
102
RTVSPropertyOp12
 70
     0
102
RTVSPropertyOp13
 70
     0
102
RTVSPropertyOp14
 70
     2
102
RTVSPropertyOp15
 70
     0
102
RTVSPropertyOp16
 70
     0
102
RTVSPropertyOp17
 70
     0
102
RTVSPropertyOp18
 70
     0
102
RTVSPropertyOp19
 70
     0
102
RTVSPropertyOp20
 70
     0
102
RTVSPropertyOp21
 70
     0
102
RTVSPropertyOp22
 70
     0
102
RTVSPropertyOp23
 70
     0
102
RTVSPropertyOp24
 70
     0
102
RTVSPropertyOp25
 70
     0
102
RTVSPropertyOp26
 70
     0
102
RTVSPropertyOp27
 70
     0
102
RTVSPropertyOp28
 70
     0
102
RTVSPropertyOp29
 70
     0
102
RTVSPropertyOp30
 70
     0
102
RTVSPropertyOp31
 70
     0
102
RTVSPropertyOp32
 70
     0
102
RTVSPropertyOp33
 70
     0
102
RTVSPropertyOp34
 70
     0
102
RTVSPropertyOp35
 70
     0
102
RTVSPropertyOp36
 70
     0
102
RTVSPropertyOp37
 70
     0
102
RTVSPropertyOp38
 70
     0
102
RTVSPropertyOp39
 70
     0
102
RTVSPropertyOp40
 70
     0
102
RTVSPropertyOp41
 70
     0
102
RTVSPropertyOp42
 70
     0
102
RTVSPropertyOp43
 70
     0
102
RTVSPropertyOp44
 70
     0
102
RTVSPropertyOp45
 70
     0
102
RTVSPropertyOp46
 70
     0
102
RTVSPropertyOp47
 70
     0
102
RTVSPropertyOp48
 70
     0
102
RTVSPropertyOp49
 70
     0
102
RTVSPropertyOp50
 70
     0
102
RTVSPropertyOp51
 70
     0
102
RTVSPropertyOp52
 70
     0
102
RTVSPropertyOp53
 70
     0
102
RTVSPropertyOp54
 70
     0
102
RTVSPropertyOp55
 70
     0
102
RTVSPropertyOp56
 70
     0
102
RTVSPropertyOp57
 70
     0
102
RTVSPost2010Prop28
280
     0
102
RTVSPost2010PropOp28
 70
     0
102
RTVSPost2010Prop29
280
     1
102
RTVSPost2010PropOp29
 70
     0
102
RTVSPost2010Prop30
280
     1
102
RTVSPost2010PropOp30
 70
     0
102
RTVSPost2010Prop31
280
     0
102
RTVSPost2010PropOp31
 70
     0
102
RTVSPost2010Prop32
280
     0
102
RTVSPost2010PropOp32
 70
     0
102
RTVSPost2010Prop33
280
     0
102
RTVSPost2010PropOp33
 70
     0
102
RTVSPost2010Prop34
280
     0
102
RTVSPost2010PropOp34
 70
     0
102
RTVSPost2010Prop35
280
     0
102
RTVSPost2010PropOp35
 70
     0
102
RTVSPost2010Prop36
280
     0
102
RTVSPost2010PropOp36
 70
     0
102
RTVSPost2010Prop37
 90
       50
102
RTVSPost2010PropOp37
 70
     0
102
RTVSPost2010Prop38
140
0.0
102
RTVSPost2010PropOp38
 70
     0
102
RTVSPost2010Prop39
140
1.0
102
RTVSPost2010PropOp39
 70
     0
102
RTVSPost2010Prop40
 90
        0
102
RTVSPost2010PropOp40
 70
     0
102
RTVSPost2010Prop41ColorIndex
 90
       18
102
RTVSPost2010Prop41ColorRGB
 90
        0
102
RTVSPost2010PropOp41
 70
     0
102
RTVSPost2010Prop42
 90
       50
102
RTVSPost2010PropOp42
 70
     0
102
RTVSPost2010Prop43
 90
        3
102
RTVSPost2010PropOp43
 70
     0
102
RTVSPost2010Prop44ColorIndex
 90
        5
102
RTVSPost2010Prop44ColorRGB
 90
      255
102
RTVSPost2010PropOp44
 70
     0
102
RTVSPost2010Prop45
280
     0
102
RTVSPost2010PropOp45
 70
     0
102
RTVSPost2010Prop46
 90
       50
102
RTVSPost2010PropOp46
 70
     0
102
RTVSPost2010Prop47
 90
       50
102
RTVSPost2010PropOp47
 70
     0
102
RTVSPost2010Prop48
 90
       50
102
RTVSPost2010PropOp48
 70
     0
102
RTVSPost2010Prop49
280
     0
102
RTVSPost2010PropOp49
 70
     0
102
RTVSPost2010Prop50
 90
       50
102
RTVSPost2010PropOp50
 70
     0
102
RTVSPost2010Prop51ColorIndex
 90
      256
102
RTVSPost2010Prop51ColorRGB
 90
-16777216
102
RTVSPost2010PropOp51
 70
     0
102
RTVSPost2010Prop52
140
1.0
102
RTVSPost2010PropOp52
 70
     0
102
RTVSPost2010Prop53
 90
        2
102
RTVSPost2010PropOp53
 70
     0
102
RTVSPost2010Prop54
  1
strokes_ogs.tif
102
RTVSPost2010PropOp54
 70
     0
102
RTVSPost2010Prop55
280
     0
102
RTVSPost2010PropOp55
 70
     0
102
RTVSPost2010Prop56
140
1.0
102
RTVSPost2010PropOp56
 70
     0
102
RTVSPost2010Prop57
140
1.0
102
RTVSPost2010PropOp57
 70
     0
  0
XRECORD
  5
10D
102
{ACAD_REACTORS
330
10C
102
}
330
10C
100
AcDbXrecord
280
     1
102
RTVSPropertyOp0
 70
     1
102
RTVSPropertyOp1
 70
     1
102
RTVSPropertyOp2
 70
     1
102
RTVSPropertyOp3
 70
     1
102
RTVSPropertyOp4
 70
     1
102
RTVSPropertyOp5
 70
     1
102
RTVSPropertyOp6
 70
     1
102
RTVSPropertyOp7
 70
     1
102
RTVSPropertyOp8
 70
     1
102
RTVSPropertyOp9
 70
     1
102
RTVSPropertyOp10
 70
     1
102
RTVSPropertyOp11
 70
     1
102
RTVSPropertyOp12
 70
     1
102
RTVSPropertyOp13
 70
     1
102
RTVSPropertyOp14
 70
     1
102
RTVSPropertyOp15
 70
     1
102
RTVSPropertyOp16
 70
     1
102
RTVSPropertyOp17
 70
     1
102
RTVSPropertyOp18
 70
     1
102
RTVSPropertyOp19
 70
     1
102
RTVSPropertyOp20
 70
     1
102
RTVSPropertyOp21
 70
     1
102
RTVSPropertyOp22
 70
     1
102
RTVSPropertyOp23
 70
     1
102
RTVSPropertyOp24
 70
     1
102
RTVSPropertyOp25
 70
     1
102
RTVSPropertyOp26
 70
     1
102
RTVSPropertyOp27
 70
     1
102
RTVSPropertyOp28
 70
     1
102
RTVSPropertyOp29
 70
     1
102
RTVSPropertyOp30
 70
     1
102
RTVSPropertyOp31
 70
     1
102
RTVSPropertyOp32
 70
     1
102
RTVSPropertyOp33
 70
     1
102
RTVSPropertyOp34
 70
     1
102
RTVSPropertyOp35
 70
     1
102
RTVSPropertyOp36
 70
     1
102
RTVSPropertyOp37
 70
     1
102
RTVSPropertyOp38
 70
     1
102
RTVSPropertyOp39
 70
     1
102
RTVSPropertyOp40
 70
     1
102
RTVSPropertyOp41
 70
     1
102
RTVSPropertyOp42
 70
     1
102
RTVSPropertyOp43
 70
     1
102
RTVSPropertyOp44
 70
     1
102
RTVSPropertyOp45
 70
     1
102
RTVSPropertyOp46
 70
     1
102
RTVSPropertyOp47
 70
     1
102
RTVSPropertyOp48
 70
     1
102
RTVSPropertyOp49
 70
     1
102
RTVSPropertyOp50
 70
     1
102
RTVSPropertyOp51
 70
     0
102
RTVSPropertyOp52
 70
     0
102
RTVSPropertyOp53
 70
     1
102
RTVSPropertyOp54
 70
     1
102
RTVSPropertyOp55
 70
     1
102
RTVSPropertyOp56
 70
     1
102
RTVSPropertyOp57
 70
     1
102
RTVSPost2010Prop28
280
     0
102
RTVSPost2010PropOp28
 70
     1
102
RTVSPost2010Prop29
280
     1
102
RTVSPost2010PropOp29
 70
     1
102
RTVSPost2010Prop30
280
     1
102
RTVSPost2010PropOp30
 70
     1
102
RTVSPost2010Prop31
280
     0
102
RTVSPost2010PropOp31
 70
     1
102
RTVSPost2010Prop32
280
     0
102
RTVSPost2010PropOp32
 70
     1
102
RTVSPost2010Prop33
280
     0
102
RTVSPost2010PropOp33
 70
     1
102
RTVSPost2010Prop34
280
     0
102
RTVSPost2010PropOp34
 70
     1
102
RTVSPost2010Prop35
280
     0
102
RTVSPost2010PropOp35
 70
     1
102
RTVSPost2010Prop36
280
     0
102
RTVSPost2010PropOp36
 70
     1
102
RTVSPost2010Prop37
 90
       50
102
RTVSPost2010PropOp37
 70
     1
102
RTVSPost2010Prop38
140
0.0
102
RTVSPost2010PropOp38
 70
     1
102
RTVSPost2010Prop39
140
1.0
102
RTVSPost2010PropOp39
 70
     1
102
RTVSPost2010Prop40
 90
        0
102
RTVSPost2010PropOp40
 70
     1
102
RTVSPost2010Prop41ColorIndex
 90
       18
102
RTVSPost2010Prop41ColorRGB
 90
        0
102
RTVSPost2010PropOp41
 70
     1
102
RTVSPost2010Prop42
 90
       50
102
RTVSPost2010PropOp42
 70
     1
102
RTVSPost2010Prop43
 90
        3
102
RTVSPost2010PropOp43
 70
     1
102
RTVSPost2010Prop44ColorIndex
 90
        5
102
RTVSPost2010Prop44ColorRGB
 90
      255
102
RTVSPost2010PropOp44
 70
     1
102
RTVSPost2010Prop45
280
     0
102
RTVSPost2010PropOp45
 70
     1
102
RTVSPost2010Prop46
 90
       50
102
RTVSPost2010PropOp46
 70
     1
102
RTVSPost2010Prop47
 90
       50
102
RTVSPost2010PropOp47
 70
     1
102
RTVSPost2010Prop48
 90
       50
102
RTVSPost2010PropOp48
 70
     1
102
RTVSPost2010Prop49
280
     0
102
RTVSPost2010PropOp49
 70
     1
102
RTVSPost2010Prop50
 90
       50
102
RTVSPost2010PropOp50
 70
     1
102
RTVSPost2010Prop51ColorIndex
 90
      256
102
RTVSPost2010Prop51ColorRGB
 90
-16777216
102
RTVSPost2010PropOp51
 70
     0
102
RTVSPost2010Prop52
140
1.0
102
RTVSPost2010PropOp52
 70
     0
102
RTVSPost2010Prop53
 90
        2
102
RTVSPost2010PropOp53
 70
     1
102
RTVSPost2010Prop54
  1
strokes_ogs.tif
102
RTVSPost2010PropOp54
 70
     1
102
RTVSPost2010Prop55
280
     0
102
RTVSPost2010PropOp55
 70
     1
102
RTVSPost2010Prop56
140
1.0
102
RTVSPost2010PropOp56
 70
     1
102
RTVSPost2010Prop57
140
1.0
102
RTVSPost2010PropOp57
 70
     1
  0
XRECORD
  5
12B
102
{ACAD_REACTORS
330
12A
102
}
330
12A
100
AcDbXrecord
280
     1
102
RTVSPropertyOp0
 70
     1
102
RTVSPropertyOp1
 70
     1
102
RTVSPropertyOp2
 70
     1
102
RTVSPropertyOp3
 70
     1
102
RTVSPropertyOp4
 70
     1
102
RTVSPropertyOp5
 70
     1
102
RTVSPropertyOp6
 70
     1
102
RTVSPropertyOp7
 70
     1
102
RTVSPropertyOp8
 70
     1
102
RTVSPropertyOp9
 70
     1
102
RTVSPropertyOp10
 70
     1
102
RTVSPropertyOp11
 70
     1
102
RTVSPropertyOp12
 70
     1
102
RTVSPropertyOp13
 70
     1
102
RTVSPropertyOp14
 70
     1
102
RTVSPropertyOp15
 70
     1
102
RTVSPropertyOp16
 70
     1
102
RTVSPropertyOp17
 70
     1
102
RTVSPropertyOp18
 70
     1
102
RTVSPropertyOp19
 70
     1
102
RTVSPropertyOp20
 70
     1
102
RTVSPropertyOp21
 70
     1
102
RTVSPropertyOp22
 70
     1
102
RTVSPropertyOp23
 70
     1
102
RTVSPropertyOp24
 70
     1
102
RTVSPropertyOp25
 70
     1
102
RTVSPropertyOp26
 70
     1
102
RTVSPropertyOp27
 70
     1
102
RTVSPropertyOp28
 70
     1
102
RTVSPropertyOp29
 70
     1
102
RTVSPropertyOp30
 70
     1
102
RTVSPropertyOp31
 70
     1
102
RTVSPropertyOp32
 70
     1
102
RTVSPropertyOp33
 70
     1
102
RTVSPropertyOp34
 70
     1
102
RTVSPropertyOp35
 70
     1
102
RTVSPropertyOp36
 70
     1
102
RTVSPropertyOp37
 70
     1
102
RTVSPropertyOp38
 70
     1
102
RTVSPropertyOp39
 70
     1
102
RTVSPropertyOp40
 70
     1
102
RTVSPropertyOp41
 70
     1
102
RTVSPropertyOp42
 70
     1
102
RTVSPropertyOp43
 70
     1
102
RTVSPropertyOp44
 70
     1
102
RTVSPropertyOp45
 70
     1
102
RTVSPropertyOp46
 70
     1
102
RTVSPropertyOp47
 70
     1
102
RTVSPropertyOp48
 70
     1
102
RTVSPropertyOp49
 70
     1
102
RTVSPropertyOp50
 70
     1
102
RTVSPropertyOp51
 70
     0
102
RTVSPropertyOp52
 70
     0
102
RTVSPropertyOp53
 70
     1
102
RTVSPropertyOp54
 70
     1
102
RTVSPropertyOp55
 70
     1
102
RTVSPropertyOp56
 70
     1
102
RTVSPropertyOp57
 70
     1
102
RTVSPost2010Prop28
280
     0
102
RTVSPost2010PropOp28
 70
     1
102
RTVSPost2010Prop29
280
     1
102
RTVSPost2010PropOp29
 70
     1
102
RTVSPost2010Prop30
280
     1
102
RTVSPost2010PropOp30
 70
     1
102
RTVSPost2010Prop31
280
     0
102
RTVSPost2010PropOp31
 70
     1
102
RTVSPost2010Prop32
280
     0
102
RTVSPost2010PropOp32
 70
     1
102
RTVSPost2010Prop33
280
     0
102
RTVSPost2010PropOp33
 70
     1
102
RTVSPost2010Prop34
280
     0
102
RTVSPost2010PropOp34
 70
     1
102
RTVSPost2010Prop35
280
     0
102
RTVSPost2010PropOp35
 70
     1
102
RTVSPost2010Prop36
280
     0
102
RTVSPost2010PropOp36
 70
     1
102
RTVSPost2010Prop37
 90
       50
102
RTVSPost2010PropOp37
 70
     1
102
RTVSPost2010Prop38
140
0.0
102
RTVSPost2010PropOp38
 70
     1
102
RTVSPost2010Prop39
140
1.0
102
RTVSPost2010PropOp39
 70
     1
102
RTVSPost2010Prop40
 90
        0
102
RTVSPost2010PropOp40
 70
     1
102
RTVSPost2010Prop41ColorIndex
 90
       18
102
RTVSPost2010Prop41ColorRGB
 90
        0
102
RTVSPost2010PropOp41
 70
     1
102
RTVSPost2010Prop42
 90
       50
102
RTVSPost2010PropOp42
 70
     1
102
RTVSPost2010Prop43
 90
        3
102
RTVSPost2010PropOp43
 70
     1
102
RTVSPost2010Prop44ColorIndex
 90
        5
102
RTVSPost2010Prop44ColorRGB
 90
      255
102
RTVSPost2010PropOp44
 70
     1
102
RTVSPost2010Prop45
280
     0
102
RTVSPost2010PropOp45
 70
     1
102
RTVSPost2010Prop46
 90
       50
102
RTVSPost2010PropOp46
 70
     1
102
RTVSPost2010Prop47
 90
       50
102
RTVSPost2010PropOp47
 70
     1
102
RTVSPost2010Prop48
 90
       50
102
RTVSPost2010PropOp48
 70
     1
102
RTVSPost2010Prop49
280
     0
102
RTVSPost2010PropOp49
 70
     1
102
RTVSPost2010Prop50
 90
       50
102
RTVSPost2010PropOp50
 70
     1
102
RTVSPost2010Prop51ColorIndex
 90
      256
102
RTVSPost2010Prop51ColorRGB
 90
-16777216
102
RTVSPost2010PropOp51
 70
     0
102
RTVSPost2010Prop52
140
1.0
102
RTVSPost2010PropOp52
 70
     0
102
RTVSPost2010Prop53
 90
        2
102
RTVSPost2010PropOp53
 70
     1
102
RTVSPost2010Prop54
  1
strokes_ogs.tif
102
RTVSPost2010PropOp54
 70
     1
102
RTVSPost2010Prop55
280
     0
102
RTVSPost2010PropOp55
 70
     1
102
RTVSPost2010Prop56
140
1.0
102
RTVSPost2010PropOp56
 70
     1
102
RTVSPost2010Prop57
140
1.0
102
RTVSPost2010PropOp57
 70
     1
  0
XRECORD
  5
129
102
{ACAD_REACTORS
330
128
102
}
330
128
100
AcDbXrecord
280
     1
102
RTVSPropertyOp0
 70
     1
102
RTVSPropertyOp1
 70
     1
102
RTVSPropertyOp2
 70
     1
102
RTVSPropertyOp3
 70
     1
102
RTVSPropertyOp4
 70
     1
102
RTVSPropertyOp5
 70
     1
102
RTVSPropertyOp6
 70
     1
102
RTVSPropertyOp7
 70
     1
102
RTVSPropertyOp8
 70
     1
102
RTVSPropertyOp9
 70
     1
102
RTVSPropertyOp10
 70
     1
102
RTVSPropertyOp11
 70
     1
102
RTVSPropertyOp12
 70
     1
102
RTVSPropertyOp13
 70
     1
102
RTVSPropertyOp14
 70
     1
102
RTVSPropertyOp15
 70
     1
102
RTVSPropertyOp16
 70
     1
102
RTVSPropertyOp17
 70
     1
102
RTVSPropertyOp18
 70
     1
102
RTVSPropertyOp19
 70
     1
102
RTVSPropertyOp20
 70
     1
102
RTVSPropertyOp21
 70
     1
102
RTVSPropertyOp22
 70
     1
102
RTVSPropertyOp23
 70
     1
102
RTVSPropertyOp24
 70
     1
102
RTVSPropertyOp25
 70
     1
102
RTVSPropertyOp26
 70
     1
102
RTVSPropertyOp27
 70
     1
102
RTVSPropertyOp28
 70
     1
102
RTVSPropertyOp29
 70
     1
102
RTVSPropertyOp30
 70
     1
102
RTVSPropertyOp31
 70
     1
102
RTVSPropertyOp32
 70
     1
102
RTVSPropertyOp33
 70
     1
102
RTVSPropertyOp34
 70
     1
102
RTVSPropertyOp35
 70
     1
102
RTVSPropertyOp36
 70
     1
102
RTVSPropertyOp37
 70
     1
102
RTVSPropertyOp38
 70
     1
102
RTVSPropertyOp39
 70
     1
102
RTVSPropertyOp40
 70
     1
102
RTVSPropertyOp41
 70
     1
102
RTVSPropertyOp42
 70
     1
102
RTVSPropertyOp43
 70
     1
102
RTVSPropertyOp44
 70
     1
102
RTVSPropertyOp45
 70
     1
102
RTVSPropertyOp46
 70
     1
102
RTVSPropertyOp47
 70
     1
102
RTVSPropertyOp48
 70
     1
102
RTVSPropertyOp49
 70
     1
102
RTVSPropertyOp50
 70
     1
102
RTVSPropertyOp51
 70
     0
102
RTVSPropertyOp52
 70
     0
102
RTVSPropertyOp53
 70
     1
102
RTVSPropertyOp54
 70
     1
102
RTVSPropertyOp55
 70
     1
102
RTVSPropertyOp56
 70
     1
102
RTVSPropertyOp57
 70
     1
102
RTVSPost2010Prop28
280
     0
102
RTVSPost2010PropOp28
 70
     1
102
RTVSPost2010Prop29
280
     1
102
RTVSPost2010PropOp29
 70
     1
102
RTVSPost2010Prop30
280
     1
102
RTVSPost2010PropOp30
 70
     1
102
RTVSPost2010Prop31
280
     0
102
RTVSPost2010PropOp31
 70
     1
102
RTVSPost2010Prop32
280
     0
102
RTVSPost2010PropOp32
 70
     1
102
RTVSPost2010Prop33
280
     0
102
RTVSPost2010PropOp33
 70
     1
102
RTVSPost2010Prop34
280
     0
102
RTVSPost2010PropOp34
 70
     1
102
RTVSPost2010Prop35
280
     0
102
RTVSPost2010PropOp35
 70
     1
102
RTVSPost2010Prop36
280
     0
102
RTVSPost2010PropOp36
 70
     1
102
RTVSPost2010Prop37
 90
       50
102
RTVSPost2010PropOp37
 70
     1
102
RTVSPost2010Prop38
140
0.0
102
RTVSPost2010PropOp38
 70
     1
102
RTVSPost2010Prop39
140
1.0
102
RTVSPost2010PropOp39
 70
     1
102
RTVSPost2010Prop40
 90
        0
102
RTVSPost2010PropOp40
 70
     1
102
RTVSPost2010Prop41ColorIndex
 90
       18
102
RTVSPost2010Prop41ColorRGB
 90
        0
102
RTVSPost2010PropOp41
 70
     1
102
RTVSPost2010Prop42
 90
       50
102
RTVSPost2010PropOp42
 70
     1
102
RTVSPost2010Prop43
 90
        3
102
RTVSPost2010PropOp43
 70
     1
102
RTVSPost2010Prop44ColorIndex
 90
        5
102
RTVSPost2010Prop44ColorRGB
 90
      255
102
RTVSPost2010PropOp44
 70
     1
102
RTVSPost2010Prop45
280
     0
102
RTVSPost2010PropOp45
 70
     1
102
RTVSPost2010Prop46
 90
       50
102
RTVSPost2010PropOp46
 70
     1
102
RTVSPost2010Prop47
 90
       50
102
RTVSPost2010PropOp47
 70
     1
102
RTVSPost2010Prop48
 90
       50
102
RTVSPost2010PropOp48
 70
     1
102
RTVSPost2010Prop49
280
     0
102
RTVSPost2010PropOp49
 70
     1
102
RTVSPost2010Prop50
 90
       50
102
RTVSPost2010PropOp50
 70
     1
102
RTVSPost2010Prop51ColorIndex
 90
      256
102
RTVSPost2010Prop51ColorRGB
 90
-16777216
102
RTVSPost2010PropOp51
 70
     0
102
RTVSPost2010Prop52
140
1.0
102
RTVSPost2010PropOp52
 70
     0
102
RTVSPost2010Prop53
 90
        2
102
RTVSPost2010PropOp53
 70
     1
102
RTVSPost2010Prop54
  1
strokes_ogs.tif
102
RTVSPost2010PropOp54
 70
     1
102
RTVSPost2010Prop55
280
     0
102
RTVSPost2010PropOp55
 70
     1
102
RTVSPost2010Prop56
140
1.0
102
RTVSPost2010PropOp56
 70
     1
102
RTVSPost2010Prop57
140
1.0
102
RTVSPost2010PropOp57
 70
     1
  0
XRECORD
  5
123
102
{ACAD_REACTORS
330
122
102
}
330
122
100
AcDbXrecord
280
     1
102
RTVSPropertyOp0
 70
     1
102
RTVSPropertyOp1
 70
     1
102
RTVSPropertyOp2
 70
     1
102
RTVSPropertyOp3
 70
     1
102
RTVSPropertyOp4
 70
     1
102
RTVSPropertyOp5
 70
     1
102
RTVSPropertyOp6
 70
     1
102
RTVSPropertyOp7
 70
     1
102
RTVSPropertyOp8
 70
     1
102
RTVSPropertyOp9
 70
     1
102
RTVSPropertyOp10
 70
     1
102
RTVSPropertyOp11
 70
     1
102
RTVSPropertyOp12
 70
     1
102
RTVSPropertyOp13
 70
     1
102
RTVSPropertyOp14
 70
     1
102
RTVSPropertyOp15
 70
     1
102
RTVSPropertyOp16
 70
     1
102
RTVSPropertyOp17
 70
     1
102
RTVSPropertyOp18
 70
     1
102
RTVSPropertyOp19
 70
     1
102
RTVSPropertyOp20
 70
     1
102
RTVSPropertyOp21
 70
     1
102
RTVSPropertyOp22
 70
     1
102
RTVSPropertyOp23
 70
     1
102
RTVSPropertyOp24
 70
     1
102
RTVSPropertyOp25
 70
     1
102
RTVSPropertyOp26
 70
     1
102
RTVSPropertyOp27
 70
     1
102
RTVSPropertyOp28
 70
     1
102
RTVSPropertyOp29
 70
     1
102
RTVSPropertyOp30
 70
     1
102
RTVSPropertyOp31
 70
     1
102
RTVSPropertyOp32
 70
     1
102
RTVSPropertyOp33
 70
     1
102
RTVSPropertyOp34
 70
     1
102
RTVSPropertyOp35
 70
     1
102
RTVSPropertyOp36
 70
     1
102
RTVSPropertyOp37
 70
     1
102
RTVSPropertyOp38
 70
     1
102
RTVSPropertyOp39
 70
     1
102
RTVSPropertyOp40
 70
     1
102
RTVSPropertyOp41
 70
     1
102
RTVSPropertyOp42
 70
     1
102
RTVSPropertyOp43
 70
     1
102
RTVSPropertyOp44
 70
     1
102
RTVSPropertyOp45
 70
     1
102
RTVSPropertyOp46
 70
     1
102
RTVSPropertyOp47
 70
     1
102
RTVSPropertyOp48
 70
     1
102
RTVSPropertyOp49
 70
     1
102
RTVSPropertyOp50
 70
     1
102
RTVSPropertyOp51
 70
     0
102
RTVSPropertyOp52
 70
     0
102
RTVSPropertyOp53
 70
     1
102
RTVSPropertyOp54
 70
     1
102
RTVSPropertyOp55
 70
     1
102
RTVSPropertyOp56
 70
     1
102
RTVSPropertyOp57
 70
     1
102
RTVSPost2010Prop28
280
     0
102
RTVSPost2010PropOp28
 70
     1
102
RTVSPost2010Prop29
280
     1
102
RTVSPost2010PropOp29
 70
     1
102
RTVSPost2010Prop30
280
     1
102
RTVSPost2010PropOp30
 70
     1
102
RTVSPost2010Prop31
280
     0
102
RTVSPost2010PropOp31
 70
     1
102
RTVSPost2010Prop32
280
     0
102
RTVSPost2010PropOp32
 70
     1
102
RTVSPost2010Prop33
280
     0
102
RTVSPost2010PropOp33
 70
     1
102
RTVSPost2010Prop34
280
     0
102
RTVSPost2010PropOp34
 70
     1
102
RTVSPost2010Prop35
280
     0
102
RTVSPost2010PropOp35
 70
     1
102
RTVSPost2010Prop36
280
     0
102
RTVSPost2010PropOp36
 70
     1
102
RTVSPost2010Prop37
 90
       50
102
RTVSPost2010PropOp37
 70
     1
102
RTVSPost2010Prop38
140
0.0
102
RTVSPost2010PropOp38
 70
     1
102
RTVSPost2010Prop39
140
1.0
102
RTVSPost2010PropOp39
 70
     1
102
RTVSPost2010Prop40
 90
        0
102
RTVSPost2010PropOp40
 70
     1
102
RTVSPost2010Prop41ColorIndex
 90
       18
102
RTVSPost2010Prop41ColorRGB
 90
        0
102
RTVSPost2010PropOp41
 70
     1
102
RTVSPost2010Prop42
 90
       50
102
RTVSPost2010PropOp42
 70
     1
102
RTVSPost2010Prop43
 90
        3
102
RTVSPost2010PropOp43
 70
     1
102
RTVSPost2010Prop44ColorIndex
 90
        5
102
RTVSPost2010Prop44ColorRGB
 90
      255
102
RTVSPost2010PropOp44
 70
     1
102
RTVSPost2010Prop45
280
     0
102
RTVSPost2010PropOp45
 70
     1
102
RTVSPost2010Prop46
 90
       50
102
RTVSPost2010PropOp46
 70
     1
102
RTVSPost2010Prop47
 90
       50
102
RTVSPost2010PropOp47
 70
     1
102
RTVSPost2010Prop48
 90
       50
102
RTVSPost2010PropOp48
 70
     1
102
RTVSPost2010Prop49
280
     0
102
RTVSPost2010PropOp49
 70
     1
102
RTVSPost2010Prop50
 90
       50
102
RTVSPost2010PropOp50
 70
     1
102
RTVSPost2010Prop51ColorIndex
 90
      256
102
RTVSPost2010Prop51ColorRGB
 90
-16777216
102
RTVSPost2010PropOp51
 70
     0
102
RTVSPost2010Prop52
140
1.0
102
RTVSPost2010PropOp52
 70
     0
102
RTVSPost2010Prop53
 90
        2
102
RTVSPost2010PropOp53
 70
     1
102
RTVSPost2010Prop54
  1
strokes_ogs.tif
102
RTVSPost2010PropOp54
 70
     1
102
RTVSPost2010Prop55
280
     0
102
RTVSPost2010PropOp55
 70
     1
102
RTVSPost2010Prop56
140
1.0
102
RTVSPost2010PropOp56
 70
     1
102
RTVSPost2010Prop57
140
1.0
102
RTVSPost2010PropOp57
 70
     1
  0
XRECORD
  5
125
102
{ACAD_REACTORS
330
124
102
}
330
124
100
AcDbXrecord
280
     1
102
RTVSPropertyOp0
 70
     1
102
RTVSPropertyOp1
 70
     1
102
RTVSPropertyOp2
 70
     1
102
RTVSPropertyOp3
 70
     1
102
RTVSPropertyOp4
 70
     1
102
RTVSPropertyOp5
 70
     1
102
RTVSPropertyOp6
 70
     1
102
RTVSPropertyOp7
 70
     1
102
RTVSPropertyOp8
 70
     1
102
RTVSPropertyOp9
 70
     1
102
RTVSPropertyOp10
 70
     1
102
RTVSPropertyOp11
 70
     1
102
RTVSPropertyOp12
 70
     1
102
RTVSPropertyOp13
 70
     1
102
RTVSPropertyOp14
 70
     1
102
RTVSPropertyOp15
 70
     1
102
RTVSPropertyOp16
 70
     1
102
RTVSPropertyOp17
 70
     1
102
RTVSPropertyOp18
 70
     1
102
RTVSPropertyOp19
 70
     1
102
RTVSPropertyOp20
 70
     1
102
RTVSPropertyOp21
 70
     1
102
RTVSPropertyOp22
 70
     1
102
RTVSPropertyOp23
 70
     1
102
RTVSPropertyOp24
 70
     1
102
RTVSPropertyOp25
 70
     1
102
RTVSPropertyOp26
 70
     1
102
RTVSPropertyOp27
 70
     1
102
RTVSPropertyOp28
 70
     1
102
RTVSPropertyOp29
 70
     1
102
RTVSPropertyOp30
 70
     1
102
RTVSPropertyOp31
 70
     1
102
RTVSPropertyOp32
 70
     1
102
RTVSPropertyOp33
 70
     1
102
RTVSPropertyOp34
 70
     1
102
RTVSPropertyOp35
 70
     1
102
RTVSPropertyOp36
 70
     1
102
RTVSPropertyOp37
 70
     1
102
RTVSPropertyOp38
 70
     1
102
RTVSPropertyOp39
 70
     1
102
RTVSPropertyOp40
 70
     1
102
RTVSPropertyOp41
 70
     1
102
RTVSPropertyOp42
 70
     1
102
RTVSPropertyOp43
 70
     1
102
RTVSPropertyOp44
 70
     1
102
RTVSPropertyOp45
 70
     1
102
RTVSPropertyOp46
 70
     1
102
RTVSPropertyOp47
 70
     1
102
RTVSPropertyOp48
 70
     1
102
RTVSPropertyOp49
 70
     1
102
RTVSPropertyOp50
 70
     1
102
RTVSPropertyOp51
 70
     0
102
RTVSPropertyOp52
 70
     0
102
RTVSPropertyOp53
 70
     1
102
RTVSPropertyOp54
 70
     1
102
RTVSPropertyOp55
 70
     1
102
RTVSPropertyOp56
 70
     1
102
RTVSPropertyOp57
 70
     1
102
RTVSPost2010Prop28
280
     0
102
RTVSPost2010PropOp28
 70
     1
102
RTVSPost2010Prop29
280
     1
102
RTVSPost2010PropOp29
 70
     1
102
RTVSPost2010Prop30
280
     1
102
RTVSPost2010PropOp30
 70
     1
102
RTVSPost2010Prop31
280
     0
102
RTVSPost2010PropOp31
 70
     1
102
RTVSPost2010Prop32
280
     0
102
RTVSPost2010PropOp32
 70
     1
102
RTVSPost2010Prop33
280
     0
102
RTVSPost2010PropOp33
 70
     1
102
RTVSPost2010Prop34
280
     0
102
RTVSPost2010PropOp34
 70
     1
102
RTVSPost2010Prop35
280
     0
102
RTVSPost2010PropOp35
 70
     1
102
RTVSPost2010Prop36
280
     0
102
RTVSPost2010PropOp36
 70
     1
102
RTVSPost2010Prop37
 90
       50
102
RTVSPost2010PropOp37
 70
     1
102
RTVSPost2010Prop38
140
0.0
102
RTVSPost2010PropOp38
 70
     1
102
RTVSPost2010Prop39
140
1.0
102
RTVSPost2010PropOp39
 70
     1
102
RTVSPost2010Prop40
 90
        0
102
RTVSPost2010PropOp40
 70
     1
102
RTVSPost2010Prop41ColorIndex
 90
       18
102
RTVSPost2010Prop41ColorRGB
 90
        0
102
RTVSPost2010PropOp41
 70
     1
102
RTVSPost2010Prop42
 90
       50
102
RTVSPost2010PropOp42
 70
     1
102
RTVSPost2010Prop43
 90
        3
102
RTVSPost2010PropOp43
 70
     1
102
RTVSPost2010Prop44ColorIndex
 90
        5
102
RTVSPost2010Prop44ColorRGB
 90
      255
102
RTVSPost2010PropOp44
 70
     1
102
RTVSPost2010Prop45
280
     0
102
RTVSPost2010PropOp45
 70
     1
102
RTVSPost2010Prop46
 90
       50
102
RTVSPost2010PropOp46
 70
     1
102
RTVSPost2010Prop47
 90
       50
102
RTVSPost2010PropOp47
 70
     1
102
RTVSPost2010Prop48
 90
       50
102
RTVSPost2010PropOp48
 70
     1
102
RTVSPost2010Prop49
280
     0
102
RTVSPost2010PropOp49
 70
     1
102
RTVSPost2010Prop50
 90
       50
102
RTVSPost2010PropOp50
 70
     1
102
RTVSPost2010Prop51ColorIndex
 90
      256
102
RTVSPost2010Prop51ColorRGB
 90
-16777216
102
RTVSPost2010PropOp51
 70
     0
102
RTVSPost2010Prop52
140
1.0
102
RTVSPost2010PropOp52
 70
     0
102
RTVSPost2010Prop53
 90
        2
102
RTVSPost2010PropOp53
 70
     1
102
RTVSPost2010Prop54
  1
strokes_ogs.tif
102
RTVSPost2010PropOp54
 70
     1
102
RTVSPost2010Prop55
280
     0
102
RTVSPost2010PropOp55
 70
     1
102
RTVSPost2010Prop56
140
1.0
102
RTVSPost2010PropOp56
 70
     1
102
RTVSPost2010Prop57
140
1.0
102
RTVSPost2010PropOp57
 70
     1
  0
XRECORD
  5
115
102
{ACAD_REACTORS
330
114
102
}
330
114
100
AcDbXrecord
280
     1
102
RTVSPropertyOp0
 70
     1
102
RTVSPropertyOp1
 70
     1
102
RTVSPropertyOp2
 70
     1
102
RTVSPropertyOp3
 70
     1
102
RTVSPropertyOp4
 70
     1
102
RTVSPropertyOp5
 70
     1
102
RTVSPropertyOp6
 70
     1
102
RTVSPropertyOp7
 70
     1
102
RTVSPropertyOp8
 70
     1
102
RTVSPropertyOp9
 70
     1
102
RTVSPropertyOp10
 70
     1
102
RTVSPropertyOp11
 70
     1
102
RTVSPropertyOp12
 70
     1
102
RTVSPropertyOp13
 70
     1
102
RTVSPropertyOp14
 70
     1
102
RTVSPropertyOp15
 70
     1
102
RTVSPropertyOp16
 70
     1
102
RTVSPropertyOp17
 70
     1
102
RTVSPropertyOp18
 70
     1
102
RTVSPropertyOp19
 70
     1
102
RTVSPropertyOp20
 70
     1
102
RTVSPropertyOp21
 70
     1
102
RTVSPropertyOp22
 70
     1
102
RTVSPropertyOp23
 70
     1
102
RTVSPropertyOp24
 70
     1
102
RTVSPropertyOp25
 70
     1
102
RTVSPropertyOp26
 70
     1
102
RTVSPropertyOp27
 70
     1
102
RTVSPropertyOp28
 70
     1
102
RTVSPropertyOp29
 70
     1
102
RTVSPropertyOp30
 70
     1
102
RTVSPropertyOp31
 70
     1
102
RTVSPropertyOp32
 70
     1
102
RTVSPropertyOp33
 70
     1
102
RTVSPropertyOp34
 70
     1
102
RTVSPropertyOp35
 70
     1
102
RTVSPropertyOp36
 70
     1
102
RTVSPropertyOp37
 70
     1
102
RTVSPropertyOp38
 70
     1
102
RTVSPropertyOp39
 70
     1
102
RTVSPropertyOp40
 70
     1
102
RTVSPropertyOp41
 70
     1
102
RTVSPropertyOp42
 70
     1
102
RTVSPropertyOp43
 70
     1
102
RTVSPropertyOp44
 70
     1
102
RTVSPropertyOp45
 70
     1
102
RTVSPropertyOp46
 70
     1
102
RTVSPropertyOp47
 70
     1
102
RTVSPropertyOp48
 70
     1
102
RTVSPropertyOp49
 70
     1
102
RTVSPropertyOp50
 70
     1
102
RTVSPropertyOp51
 70
     0
102
RTVSPropertyOp52
 70
     0
102
RTVSPropertyOp53
 70
     1
102
RTVSPropertyOp54
 70
     1
102
RTVSPropertyOp55
 70
     1
102
RTVSPropertyOp56
 70
     1
102
RTVSPropertyOp57
 70
     1
102
RTVSPost2010Prop28
280
     0
102
RTVSPost2010PropOp28
 70
     1
102
RTVSPost2010Prop29
280
     1
102
RTVSPost2010PropOp29
 70
     1
102
RTVSPost2010Prop30
280
     1
102
RTVSPost2010PropOp30
 70
     1
102
RTVSPost2010Prop31
280
     0
102
RTVSPost2010PropOp31
 70
     1
102
RTVSPost2010Prop32
280
     0
102
RTVSPost2010PropOp32
 70
     1
102
RTVSPost2010Prop33
280
     0
102
RTVSPost2010PropOp33
 70
     1
102
RTVSPost2010Prop34
280
     0
102
RTVSPost2010PropOp34
 70
     1
102
RTVSPost2010Prop35
280
     0
102
RTVSPost2010PropOp35
 70
     1
102
RTVSPost2010Prop36
280
     0
102
RTVSPost2010PropOp36
 70
     1
102
RTVSPost2010Prop37
 90
       50
102
RTVSPost2010PropOp37
 70
     1
102
RTVSPost2010Prop38
140
0.0
102
RTVSPost2010PropOp38
 70
     1
102
RTVSPost2010Prop39
140
1.0
102
RTVSPost2010PropOp39
 70
     1
102
RTVSPost2010Prop40
 90
        0
102
RTVSPost2010PropOp40
 70
     1
102
RTVSPost2010Prop41ColorIndex
 90
       18
102
RTVSPost2010Prop41ColorRGB
 90
        0
102
RTVSPost2010PropOp41
 70
     1
102
RTVSPost2010Prop42
 90
       50
102
RTVSPost2010PropOp42
 70
     1
102
RTVSPost2010Prop43
 90
        3
102
RTVSPost2010PropOp43
 70
     1
102
RTVSPost2010Prop44ColorIndex
 90
        5
102
RTVSPost2010Prop44ColorRGB
 90
      255
102
RTVSPost2010PropOp44
 70
     1
102
RTVSPost2010Prop45
280
     0
102
RTVSPost2010PropOp45
 70
     1
102
RTVSPost2010Prop46
 90
       50
102
RTVSPost2010PropOp46
 70
     1
102
RTVSPost2010Prop47
 90
       50
102
RTVSPost2010PropOp47
 70
     1
102
RTVSPost2010Prop48
 90
       50
102
RTVSPost2010PropOp48
 70
     1
102
RTVSPost2010Prop49
280
     0
102
RTVSPost2010PropOp49
 70
     1
102
RTVSPost2010Prop50
 90
       50
102
RTVSPost2010PropOp50
 70
     1
102
RTVSPost2010Prop51ColorIndex
 90
      256
102
RTVSPost2010Prop51ColorRGB
 90
-16777216
102
RTVSPost2010PropOp51
 70
     0
102
RTVSPost2010Prop52
140
1.0
102
RTVSPost2010PropOp52
 70
     0
102
RTVSPost2010Prop53
 90
        2
102
RTVSPost2010PropOp53
 70
     1
102
RTVSPost2010Prop54
  1
strokes_ogs.tif
102
RTVSPost2010PropOp54
 70
     1
102
RTVSPost2010Prop55
280
     0
102
RTVSPost2010PropOp55
 70
     1
102
RTVSPost2010Prop56
140
1.0
102
RTVSPost2010PropOp56
 70
     1
102
RTVSPost2010Prop57
140
1.0
102
RTVSPost2010PropOp57
 70
     1
  0
XRECORD
  5
107
102
{ACAD_REACTORS
330
106
102
}
330
106
100
AcDbXrecord
280
     1
102
RTVSPropertyOp0
 70
     1
102
RTVSPropertyOp1
 70
     1
102
RTVSPropertyOp2
 70
     1
102
RTVSPropertyOp3
 70
     1
102
RTVSPropertyOp4
 70
     1
102
RTVSPropertyOp5
 70
     1
102
RTVSPropertyOp6
 70
     1
102
RTVSPropertyOp7
 70
     1
102
RTVSPropertyOp8
 70
     1
102
RTVSPropertyOp9
 70
     1
102
RTVSPropertyOp10
 70
     1
102
RTVSPropertyOp11
 70
     1
102
RTVSPropertyOp12
 70
     1
102
RTVSPropertyOp13
 70
     1
102
RTVSPropertyOp14
 70
     1
102
RTVSPropertyOp15
 70
     1
102
RTVSPropertyOp16
 70
     1
102
RTVSPropertyOp17
 70
     1
102
RTVSPropertyOp18
 70
     1
102
RTVSPropertyOp19
 70
     1
102
RTVSPropertyOp20
 70
     1
102
RTVSPropertyOp21
 70
     1
102
RTVSPropertyOp22
 70
     1
102
RTVSPropertyOp23
 70
     1
102
RTVSPropertyOp24
 70
     1
102
RTVSPropertyOp25
 70
     1
102
RTVSPropertyOp26
 70
     1
102
RTVSPropertyOp27
 70
     1
102
RTVSPropertyOp28
 70
     1
102
RTVSPropertyOp29
 70
     1
102
RTVSPropertyOp30
 70
     1
102
RTVSPropertyOp31
 70
     1
102
RTVSPropertyOp32
 70
     1
102
RTVSPropertyOp33
 70
     1
102
RTVSPropertyOp34
 70
     1
102
RTVSPropertyOp35
 70
     1
102
RTVSPropertyOp36
 70
     1
102
RTVSPropertyOp37
 70
     1
102
RTVSPropertyOp38
 70
     1
102
RTVSPropertyOp39
 70
     1
102
RTVSPropertyOp40
 70
     1
102
RTVSPropertyOp41
 70
     1
102
RTVSPropertyOp42
 70
     1
102
RTVSPropertyOp43
 70
     1
102
RTVSPropertyOp44
 70
     1
102
RTVSPropertyOp45
 70
     1
102
RTVSPropertyOp46
 70
     1
102
RTVSPropertyOp47
 70
     1
102
RTVSPropertyOp48
 70
     1
102
RTVSPropertyOp49
 70
     1
102
RTVSPropertyOp50
 70
     1
102
RTVSPropertyOp51
 70
     0
102
RTVSPropertyOp52
 70
     0
102
RTVSPropertyOp53
 70
     1
102
RTVSPropertyOp54
 70
     1
102
RTVSPropertyOp55
 70
     1
102
RTVSPropertyOp56
 70
     1
102
RTVSPropertyOp57
 70
     1
102
RTVSPost2010Prop28
280
     0
102
RTVSPost2010PropOp28
 70
     1
102
RTVSPost2010Prop29
280
     1
102
RTVSPost2010PropOp29
 70
     1
102
RTVSPost2010Prop30
280
     1
102
RTVSPost2010PropOp30
 70
     1
102
RTVSPost2010Prop31
280
     0
102
RTVSPost2010PropOp31
 70
     1
102
RTVSPost2010Prop32
280
     0
102
RTVSPost2010PropOp32
 70
     1
102
RTVSPost2010Prop33
280
     0
102
RTVSPost2010PropOp33
 70
     1
102
RTVSPost2010Prop34
280
     0
102
RTVSPost2010PropOp34
 70
     1
102
RTVSPost2010Prop35
280
     0
102
RTVSPost2010PropOp35
 70
     1
102
RTVSPost2010Prop36
280
     0
102
RTVSPost2010PropOp36
 70
     1
102
RTVSPost2010Prop37
 90
       50
102
RTVSPost2010PropOp37
 70
     1
102
RTVSPost2010Prop38
140
0.0
102
RTVSPost2010PropOp38
 70
     1
102
RTVSPost2010Prop39
140
1.0
102
RTVSPost2010PropOp39
 70
     1
102
RTVSPost2010Prop40
 90
        0
102
RTVSPost2010PropOp40
 70
     1
102
RTVSPost2010Prop41ColorIndex
 90
       18
102
RTVSPost2010Prop41ColorRGB
 90
        0
102
RTVSPost2010PropOp41
 70
     1
102
RTVSPost2010Prop42
 90
       50
102
RTVSPost2010PropOp42
 70
     1
102
RTVSPost2010Prop43
 90
        3
102
RTVSPost2010PropOp43
 70
     1
102
RTVSPost2010Prop44ColorIndex
 90
        5
102
RTVSPost2010Prop44ColorRGB
 90
      255
102
RTVSPost2010PropOp44
 70
     1
102
RTVSPost2010Prop45
280
     0
102
RTVSPost2010PropOp45
 70
     1
102
RTVSPost2010Prop46
 90
       50
102
RTVSPost2010PropOp46
 70
     1
102
RTVSPost2010Prop47
 90
       50
102
RTVSPost2010PropOp47
 70
     1
102
RTVSPost2010Prop48
 90
       50
102
RTVSPost2010PropOp48
 70
     1
102
RTVSPost2010Prop49
280
     0
102
RTVSPost2010PropOp49
 70
     1
102
RTVSPost2010Prop50
 90
       50
102
RTVSPost2010PropOp50
 70
     1
102
RTVSPost2010Prop51ColorIndex
 90
      256
102
RTVSPost2010Prop51ColorRGB
 90
-16777216
102
RTVSPost2010PropOp51
 70
     0
102
RTVSPost2010Prop52
140
1.0
102
RTVSPost2010PropOp52
 70
     0
102
RTVSPost2010Prop53
 90
        2
102
RTVSPost2010PropOp53
 70
     1
102
RTVSPost2010Prop54
  1
strokes_ogs.tif
102
RTVSPost2010PropOp54
 70
     1
102
RTVSPost2010Prop55
280
     0
102
RTVSPost2010PropOp55
 70
     1
102
RTVSPost2010Prop56
140
1.0
102
RTVSPost2010PropOp56
 70
     1
102
RTVSPost2010Prop57
140
1.0
102
RTVSPost2010PropOp57
 70
     1
  0
XRECORD
  5
127
102
{ACAD_REACTORS
330
126
102
}
330
126
100
AcDbXrecord
280
     1
102
RTVSPropertyOp0
 70
     1
102
RTVSPropertyOp1
 70
     1
102
RTVSPropertyOp2
 70
     1
102
RTVSPropertyOp3
 70
     1
102
RTVSPropertyOp4
 70
     1
102
RTVSPropertyOp5
 70
     1
102
RTVSPropertyOp6
 70
     1
102
RTVSPropertyOp7
 70
     1
102
RTVSPropertyOp8
 70
     1
102
RTVSPropertyOp9
 70
     1
102
RTVSPropertyOp10
 70
     1
102
RTVSPropertyOp11
 70
     1
102
RTVSPropertyOp12
 70
     1
102
RTVSPropertyOp13
 70
     1
102
RTVSPropertyOp14
 70
     1
102
RTVSPropertyOp15
 70
     1
102
RTVSPropertyOp16
 70
     1
102
RTVSPropertyOp17
 70
     1
102
RTVSPropertyOp18
 70
     1
102
RTVSPropertyOp19
 70
     1
102
RTVSPropertyOp20
 70
     1
102
RTVSPropertyOp21
 70
     1
102
RTVSPropertyOp22
 70
     1
102
RTVSPropertyOp23
 70
     1
102
RTVSPropertyOp24
 70
     1
102
RTVSPropertyOp25
 70
     1
102
RTVSPropertyOp26
 70
     1
102
RTVSPropertyOp27
 70
     1
102
RTVSPropertyOp28
 70
     1
102
RTVSPropertyOp29
 70
     1
102
RTVSPropertyOp30
 70
     1
102
RTVSPropertyOp31
 70
     1
102
RTVSPropertyOp32
 70
     1
102
RTVSPropertyOp33
 70
     1
102
RTVSPropertyOp34
 70
     1
102
RTVSPropertyOp35
 70
     1
102
RTVSPropertyOp36
 70
     1
102
RTVSPropertyOp37
 70
     1
102
RTVSPropertyOp38
 70
     1
102
RTVSPropertyOp39
 70
     1
102
RTVSPropertyOp40
 70
     1
102
RTVSPropertyOp41
 70
     1
102
RTVSPropertyOp42
 70
     1
102
RTVSPropertyOp43
 70
     1
102
RTVSPropertyOp44
 70
     1
102
RTVSPropertyOp45
 70
     1
102
RTVSPropertyOp46
 70
     1
102
RTVSPropertyOp47
 70
     1
102
RTVSPropertyOp48
 70
     1
102
RTVSPropertyOp49
 70
     1
102
RTVSPropertyOp50
 70
     1
102
RTVSPropertyOp51
 70
     0
102
RTVSPropertyOp52
 70
     0
102
RTVSPropertyOp53
 70
     1
102
RTVSPropertyOp54
 70
     1
102
RTVSPropertyOp55
 70
     1
102
RTVSPropertyOp56
 70
     1
102
RTVSPropertyOp57
 70
     1
102
RTVSPost2010Prop28
280
     0
102
RTVSPost2010PropOp28
 70
     1
102
RTVSPost2010Prop29
280
     1
102
RTVSPost2010PropOp29
 70
     1
102
RTVSPost2010Prop30
280
     1
102
RTVSPost2010PropOp30
 70
     1
102
RTVSPost2010Prop31
280
     0
102
RTVSPost2010PropOp31
 70
     1
102
RTVSPost2010Prop32
280
     0
102
RTVSPost2010PropOp32
 70
     1
102
RTVSPost2010Prop33
280
     0
102
RTVSPost2010PropOp33
 70
     1
102
RTVSPost2010Prop34
280
     0
102
RTVSPost2010PropOp34
 70
     1
102
RTVSPost2010Prop35
280
     0
102
RTVSPost2010PropOp35
 70
     1
102
RTVSPost2010Prop36
280
     0
102
RTVSPost2010PropOp36
 70
     1
102
RTVSPost2010Prop37
 90
       50
102
RTVSPost2010PropOp37
 70
     1
102
RTVSPost2010Prop38
140
0.0
102
RTVSPost2010PropOp38
 70
     1
102
RTVSPost2010Prop39
140
1.0
102
RTVSPost2010PropOp39
 70
     1
102
RTVSPost2010Prop40
 90
        0
102
RTVSPost2010PropOp40
 70
     1
102
RTVSPost2010Prop41ColorIndex
 90
       18
102
RTVSPost2010Prop41ColorRGB
 90
        0
102
RTVSPost2010PropOp41
 70
     1
102
RTVSPost2010Prop42
 90
       50
102
RTVSPost2010PropOp42
 70
     1
102
RTVSPost2010Prop43
 90
        3
102
RTVSPost2010PropOp43
 70
     1
102
RTVSPost2010Prop44ColorIndex
 90
        5
102
RTVSPost2010Prop44ColorRGB
 90
      255
102
RTVSPost2010PropOp44
 70
     1
102
RTVSPost2010Prop45
280
     0
102
RTVSPost2010PropOp45
 70
     1
102
RTVSPost2010Prop46
 90
       50
102
RTVSPost2010PropOp46
 70
     1
102
RTVSPost2010Prop47
 90
       50
102
RTVSPost2010PropOp47
 70
     1
102
RTVSPost2010Prop48
 90
       50
102
RTVSPost2010PropOp48
 70
     1
102
RTVSPost2010Prop49
280
     0
102
RTVSPost2010PropOp49
 70
     1
102
RTVSPost2010Prop50
 90
       50
102
RTVSPost2010PropOp50
 70
     1
102
RTVSPost2010Prop51ColorIndex
 90
      256
102
RTVSPost2010Prop51ColorRGB
 90
-16777216
102
RTVSPost2010PropOp51
 70
     0
102
RTVSPost2010Prop52
140
1.0
102
RTVSPost2010PropOp52
 70
     0
102
RTVSPost2010Prop53
 90
        2
102
RTVSPost2010PropOp53
 70
     1
102
RTVSPost2010Prop54
  1
strokes_ogs.tif
102
RTVSPost2010PropOp54
 70
     1
102
RTVSPost2010Prop55
280
     0
102
RTVSPost2010PropOp55
 70
     1
102
RTVSPost2010Prop56
140
1.0
102
RTVSPost2010PropOp56
 70
     1
102
RTVSPost2010Prop57
140
1.0
102
RTVSPost2010PropOp57
 70
     1
  0
ENDSEC
  0
EOF
